  0
SECTION
  2
HEADER
  9
$ACADVER
  1
AC1009
  9
$INSBASE
 10
0.0
 20
0.0
 30
0.0
  9
$EXTMIN
 10
-269.99999999999989
 20
-405.76244757968732
 30
0.0
  9
$EXTMAX
 10
320.46093749999989
 20
397.0636300000001
 30
0.0
  9
$LIMMIN
 10
0.0
 20
0.0
  9
$LIMMAX
 10
0.0
 20
0.0
  9
$ORTHOMODE
 70
     0
  9
$REGENMODE
 70
     1
  9
$FILLMODE
 70
     1
  9
$QTEXTMODE
 70
     0
  9
$MIRRTEXT
 70
     1
  9
$DRAGMODE
 70
     2
  9
$LTSCALE
 40
15.24
  9
$OSMODE
 70
   231
  9
$ATTMODE
 70
     1
  9
$TEXTSIZE
 40
0.0
  9
$TRACEWID
 40
1.0
  9
$TEXTSTYLE
  7
STANDARD
  9
$CLAYER
  8
DATA
  9
$CELTYPE
  6
BYLAYER
  9
$CECOLOR
 62
   256
  9
$DIMSCALE
 40
1.0
  9
$DIMASZ
 40
0.18
  9
$DIMEXO
 40
0.0625
  9
$DIMDLI
 40
0.38
  9
$DIMRND
 40
0.0
  9
$DIMDLE
 40
0.0
  9
$DIMEXE
 40
0.18
  9
$DIMTP
 40
0.0
  9
$DIMTM
 40
0.0
  9
$DIMTXT
 40
0.18
  9
$DIMCEN
 40
0.09
  9
$DIMTSZ
 40
0.0
  9
$DIMTOL
 70
     0
  9
$DIMLIM
 70
     0
  9
$DIMTIH
 70
     1
  9
$DIMTOH
 70
     1
  9
$DIMSE1
 70
     0
  9
$DIMSE2
 70
     0
  9
$DIMTAD
 70
     0
  9
$DIMZIN
 70
     0
  9
$DIMBLK
  1

  9
$DIMASO
 70
     1
  9
$DIMSHO
 70
     1
  9
$DIMPOST
  1

  9
$DIMAPOST
  1

  9
$DIMALT
 70
     0
  9
$DIMALTD
 70
     2
  9
$DIMALTF
 40
25.399999999999999
  9
$DIMLFAC
 40
1.0
  9
$DIMTOFL
 70
     0
  9
$DIMTVP
 40
0.0
  9
$DIMTIX
 70
     0
  9
$DIMSOXD
 70
     0
  9
$DIMSAH
 70
     0
  9
$DIMBLK1
  1

  9
$DIMBLK2
  1

  9
$DIMSTYLE
  2
STANDARD
  9
$DIMCLRD
 70
     0
  9
$DIMCLRE
 70
     0
  9
$DIMCLRT
 70
     0
  9
$DIMTFAC
 40
1.0
  9
$DIMGAP
 40
0.09
  9
$LUNITS
 70
     2
  9
$LUPREC
 70
     4
  9
$SKETCHINC
 40
0.1
  9
$FILLETRAD
 40
0.0
  9
$AUNITS
 70
     0
  9
$AUPREC
 70
     0
  9
$MENU
  1
acad
  9
$ELEVATION
 40
0.0
  9
$PELEVATION
 40
0.0
  9
$THICKNESS
 40
0.0
  9
$LIMCHECK
 70
     0
  9
$BLIPMODE
 70
     0
  9
$CHAMFERA
 40
0.0
  9
$CHAMFERB
 40
0.0
  9
$SKPOLY
 70
     0
  9
$TDCREATE
 40
2456940.4148032409
  9
$TDUPDATE
 40
2456940.4200840392
  9
$TDINDWG
 40
0.0004295139
  9
$TDUSRTIMER
 40
0.0004294907
  9
$USRTIMER
 70
     1
  9
$ANGBASE
 50
0.0
  9
$ANGDIR
 70
     0
  9
$PDMODE
 70
     1
  9
$PDSIZE
 40
-2.0
  9
$PLINEWID
 40
0.0
  9
$COORDS
 70
     2
  9
$SPLFRAME
 70
     0
  9
$SPLINETYPE
 70
     6
  9
$SPLINESEGS
 70
     8
  9
$ATTDIA
 70
     0
  9
$ATTREQ
 70
     1
  9
$HANDLING
 70
     1
  9
$HANDSEED
  5
2D3
  9
$SURFTAB1
 70
     6
  9
$SURFTAB2
 70
     6
  9
$SURFTYPE
 70
     6
  9
$SURFU
 70
     6
  9
$SURFV
 70
     6
  9
$UCSNAME
  2

  9
$UCSORG
 10
0.0
 20
0.0
 30
0.0
  9
$UCSXDIR
 10
1.0
 20
0.0
 30
0.0
  9
$UCSYDIR
 10
0.0
 20
1.0
 30
0.0
  9
$PUCSNAME
  2

  9
$PUCSORG
 10
0.0
 20
0.0
 30
0.0
  9
$PUCSXDIR
 10
1.0
 20
0.0
 30
0.0
  9
$PUCSYDIR
 10
0.0
 20
1.0
 30
0.0
  9
$USERI1
 70
     0
  9
$USERI2
 70
     0
  9
$USERI3
 70
     0
  9
$USERI4
 70
     0
  9
$USERI5
 70
     0
  9
$USERR1
 40
0.0
  9
$USERR2
 40
0.0
  9
$USERR3
 40
0.0
  9
$USERR4
 40
0.0
  9
$USERR5
 40
0.0
  9
$WORLDVIEW
 70
     1
  9
$SHADEDGE
 70
     3
  9
$SHADEDIF
 70
    70
  9
$TILEMODE
 70
     1
  9
$MAXACTVP
 70
    64
  9
$PLIMCHECK
 70
     0
  9
$PEXTMIN
 10
1.0000000000000000E+020
 20
1.0000000000000000E+020
 30
1.0000000000000000E+020
  9
$PEXTMAX
 10
-1.0000000000000000E+020
 20
-1.0000000000000000E+020
 30
-1.0000000000000000E+020
  9
$PLIMMIN
 10
0.0
 20
0.0
  9
$PLIMMAX
 10
12.0
 20
9.0
  9
$UNITMODE
 70
     0
  9
$VISRETAIN
 70
     0
  9
$PLINEGEN
 70
     1
  9
$PSLTSCALE
 70
     0
  0
ENDSEC
  0
SECTION
  2
TABLES
  0
TABLE
  2
VPORT
 70
     1
  0
VPORT
  2
*ACTIVE
 70
     0
 10
0.0
 20
0.0
 11
1.0
 21
1.0
 12
0.0
 22
-3.5362008406249279
 13
0.0
 23
0.0
 14
1.0
 24
1.0
 15
0.0
 25
0.0
 16
0.0
 26
0.0
 36
1.0
 17
0.0
 27
0.0
 37
0.0
 40
807.16392715282257
 41
2.362732919254658
 42
50.0
 43
0.0
 44
0.0
 50
0.0
 51
0.0
 71
     0
 72
  2000
 73
     1
 74
     1
 75
     0
 76
     0
 77
     0
 78
     0
  0
ENDTAB
  0
TABLE
  2
LTYPE
 70
    11
  0
LTYPE
  2
CONTINUOUS
 70
     0
  3
Solid line
 72
    65
 73
     0
 40
0.0
  0
ENDTAB
  0
TABLE
  2
LAYER
 70
     6
  0
LAYER
  2
0
 70
     0
 62
     7
  6
CONTINUOUS
  0
LAYER
  2
DATA
 70
     0
 62
     7
  6
CONTINUOUS
  0
LAYER
  2
HIBINO-BASE
 70
     0
 62
     7
  6
CONTINUOUS
  0
LAYER
  2
PATTERN_FILL
 70
     0
 62
     7
  6
CONTINUOUS
  0
LAYER
  2
SPEC
 70
     0
 62
     7
  6
CONTINUOUS
  0
LAYER
  2
DIMNSIONS
 70
     0
 62
     7
  6
CONTINUOUS
  0
ENDTAB
  0
TABLE
  2
STYLE
 70
     3
  0
STYLE
  2
STANDARD
 70
     0
 40
0.0
 41
1.0
 50
0.0
 71
     0
 42
0.0
  3
txt
  4
BIGFONT.SHX
  0
ENDTAB
  0
TABLE
  2
VIEW
 70
     0
  0
ENDTAB
  0
TABLE
  2
UCS
 70
     0
  0
ENDTAB
  0
TABLE
  2
APPID
 70
     4
  0
APPID
  2
ACAD
 70
     0
  0
APPID
  2
ACADANNOTATIVE
 70
     0
  0
APPID
  2
ACAD_NAV_VCDISPLAY
 70
     0
  0
APPID
  2
ACAD_MLEADERVER
 70
     0
  0
ENDTAB
  0
TABLE
  2
DIMSTYLE
 70
     2
  0
DIMSTYLE
  2
STANDARD
 70
     0
  3

  4

  5

  6

  7

 40
1.0
 41
0.18
 42
0.0625
 43
0.38
 44
0.18
 45
0.0
 46
0.0
 47
0.0
 48
0.0
140
0.18
141
0.09
142
0.0
143
25.399999999999999
144
1.0
145
0.0
146
1.0
147
0.09
 71
     0
 72
     0
 73
     1
 74
     1
 75
     0
 76
     0
 77
     0
 78
     0
170
     0
171
     2
172
     0
173
     0
174
     0
175
     0
176
     0
177
     0
178
     0
  0
ENDTAB
  0
ENDSEC
  0
SECTION
  2
BLOCKS
  0
BLOCK
  8
0
  2
$MODEL_SPACE
 70
     0
 10
0.0
 20
0.0
 30
0.0
  3
$MODEL_SPACE
  1

  0
ENDBLK
  5
25E
  8
0
  0
BLOCK
 67
     1
  8
0
  2
$PAPER_SPACE
 70
     0
 10
0.0
 20
0.0
 30
0.0
  3
$PAPER_SPACE
  1

  0
ENDBLK
  5
25A
 67
     1
  8
0
  0
ENDSEC
  0
SECTION
  2
ENTITIES
  0
LINE
  5
2D
  8
HIBINO-BASE
  6
CONTINUOUS
 62
     7
 10
-269.99999999999989
 20
397.0636300000001
 30
0.0
 11
269.99999999999989
 21
397.0636300000001
 31
0.0
  0
LINE
  5
2E
  8
HIBINO-BASE
  6
CONTINUOUS
 62
     7
 10
269.99999999999989
 20
-382.93637000000001
 30
0.0
 11
-269.99999999999989
 21
-382.93637000000001
 31
0.0
  0
LINE
  5
2F
  8
HIBINO-BASE
  6
CONTINUOUS
 62
     7
 10
-269.99999999999989
 20
-382.93637000000001
 30
0.0
 11
-269.99999999999989
 21
397.0636300000001
 31
0.0
  0
LINE
  5
30
  8
HIBINO-BASE
  6
CONTINUOUS
 62
     7
 10
269.99999999999989
 20
397.0636300000001
 30
0.0
 11
269.99999999999989
 21
-382.93637000000001
 31
0.0
  0
LINE
  5
31
  8
HIBINO-BASE
  6
CONTINUOUS
 62
     7
 10
0.0000000000000213
 20
-315.43637000000001
 30
0.0
 11
269.99999999999989
 21
-315.43637000000001
 31
0.0
  0
LINE
  5
32
  8
HIBINO-BASE
  6
CONTINUOUS
 62
     7
 10
0.0000000000000213
 20
-382.93637000000001
 30
0.0
 11
0.0000000000000213
 21
-315.43637000000001
 31
0.0
  0
TEXT
  5
33
  8
HIBINO-BASE
 62
     7
 10
2.700000000000037
 20
-322.96244999999999
 30
0.0
 40
4.8865234374999993
  1
NOTE
 41
0.7
 11
2.7000000000000379
 21
-318.0759265625
 31
0.0
 73
     3
  0
LINE
  5
34
  8
HIBINO-BASE
  6
CONTINUOUS
 62
     7
 10
105.0
 20
-382.93637000000001
 30
0.0
 11
105.0
 21
-315.43637000000001
 31
0.0
  0
TEXT
  5
35
  8
HIBINO-BASE
 62
     7
 10
107.7
 20
-322.96244999999999
 30
0.0
 40
4.8865234374999993
  1
TITLE
 41
0.7
 11
107.7
 21
-318.0759265625
 31
0.0
 73
     3
  0
LINE
  5
36
  8
HIBINO-BASE
  6
CONTINUOUS
 62
     7
 10
0.0000000000000213
 20
-352.93637000000001
 30
0.0
 11
269.99999999999989
 21
-352.93637000000001
 31
0.0
  0
TEXT
  5
37
  8
HIBINO-BASE
 62
     7
 10
145.19999999999999
 20
-360.29349000000002
 30
0.0
 40
4.8865234374999993
  1
DRAWN
 41
0.7
 11
145.19999999999999
 21
-355.40696656249997
 31
0.0
 73
     3
  0
TEXT
  5
38
  8
HIBINO-BASE
 62
     7
 10
70.199999999999989
 20
-360.29349000000002
 30
0.0
 40
4.8865234374999993
  1
DATE
 41
0.7
 11
70.199999999999989
 21
-355.40696656249997
 31
0.0
 73
     3
  0
TEXT
  5
39
  8
HIBINO-BASE
 62
     7
 10
40.200000000000003
 20
-360.29349000000002
 30
0.0
 40
4.8865234374999993
  1
SCALE
 41
0.7
 11
40.200000000000003
 21
-355.40696656249997
 31
0.0
 73
     3
  0
TEXT
  5
3A
  8
HIBINO-BASE
 62
     7
 10
107.7
 20
-360.29349000000002
 30
0.0
 40
4.8865234374999993
  1
DESIGN
 41
0.7
 11
107.7
 21
-355.40696656249997
 31
0.0
 73
     3
  0
TEXT
  5
3B
  8
HIBINO-BASE
 62
     7
 10
220.19999999999999
 20
-360.29349000000002
 30
0.0
 40
4.8865234374999993
  1
DRAWING NO.
 41
0.7
 11
220.19999999999999
 21
-355.40696656249997
 31
0.0
 73
     3
  0
TEXT
  5
3C
  8
HIBINO-BASE
 62
     7
 10
182.69999999999999
 20
-360.29349000000002
 30
0.0
 40
4.8865234374999993
  1
CHECK
 41
0.7
 11
182.69999999999999
 21
-355.40696656249997
 31
0.0
 73
     3
  0
LINE
  5
3D
  8
HIBINO-BASE
  6
CONTINUOUS
 62
     7
 10
43.125000000000021
 20
-379.18637000000001
 30
0.0
 11
54.375000000000071
 21
-367.93637000000001
 31
0.0
  0
TEXT
  5
3E
  8
HIBINO-BASE
 62
     7
 10
41.250000000000007
 20
-371.2632000000001
 30
0.0
 40
4.8865234374999993
  1
1
 41
0.7
 11
41.250000000000007
 21
-366.37667656250011
 31
0.0
 73
     3
  0
LINE
  5
3F
  8
HIBINO-BASE
  6
CONTINUOUS
 62
     7
 10
37.500000000000021
 20
-382.93637000000001
 30
0.0
 11
37.500000000000021
 21
-352.93637000000001
 31
0.0
  0
LINE
  5
40
  8
HIBINO-BASE
  6
CONTINUOUS
 62
     7
 10
67.499999999999972
 20
-382.93637000000001
 30
0.0
 11
67.499999999999972
 21
-352.93637000000001
 31
0.0
  0
LINE
  5
41
  8
HIBINO-BASE
  6
CONTINUOUS
 62
     7
 10
142.49999999999989
 20
-352.93637000000001
 30
0.0
 11
142.49999999999989
 21
-382.93637000000001
 31
0.0
  0
LINE
  5
42
  8
HIBINO-BASE
  6
CONTINUOUS
 62
     7
 10
217.50000000000011
 20
-352.93637000000001
 30
0.0
 11
217.50000000000011
 21
-382.93637000000001
 31
0.0
  0
LINE
  5
43
  8
HIBINO-BASE
  6
CONTINUOUS
 62
     7
 10
179.99999999999989
 20
-382.93637000000001
 30
0.0
 11
179.99999999999989
 21
-352.93637000000001
 31
0.0
  0
TEXT
  5
44
  8
HIBINO-BASE
 62
     7
 10
70.069620000000043
 20
-374.34543000000002
 30
0.0
 40
4.8865234374999993
  1
'14.10.
 41
0.7
 11
70.069620000000043
 21
-369.45890656249998
 31
0.0
 73
     3
  0
TEXT
  5
45
  8
HIBINO-BASE
 62
     7
 10
52.500000000000021
 20
-376.88819999999998
 30
0.0
 40
4.8865234374999993
  1
3
 41
0.7
 11
52.500000000000021
 21
-372.00167656249999
 31
0.0
 73
     3
  0
TEXT
  5
46
  8
HIBINO-BASE
 62
     7
 10
147.01743003310381
 20
-374.34543000000002
 30
0.0
 40
4.8865234374999993
  1
N.Sasaki
 41
0.7
 11
147.01743003310381
 21
-369.45890656249998
 31
0.0
 73
     3
  0
TEXT
  5
47
  8
HIBINO-BASE
 62
     7
 10
11.65000000000008
 20
-377.00837000000001
 30
0.0
 40
9.7730468749999986
  1
A4
 41
0.7
 11
11.65000000000008
 21
-367.23532312499998
 31
0.0
 73
     3
  0
TEXT
  5
48
  8
HIBINO-BASE
 62
     7
 10
2.8750000000000062
 20
-360.794735
 30
0.0
 40
4.8865234374999993
  1
PAPER SIZE
 41
0.7
 11
2.8750000000000071
 21
-355.90821156250001
 31
0.0
 73
     3
  0
TEXT
  5
49
  8
HIBINO-BASE
 62
     7
 10
-248.44799999999989
 20
-402.1624033999999
 30
0.0
 40
10.800132539062499
  1
Hibino Corporation
 41
0.7
 11
-248.44799999999989
 21
-391.36227086093749
 31
0.0
 73
     3
  0
TEXT
  5
4A
  8
HIBINO-BASE
 62
     7
 10
150.20517000000001
 20
-402.1624033999999
 30
0.0
 40
10.800132539062499
  1
ヒビノ株式会社
 41
0.7
 11
150.20517000000001
 21
-391.36227086093749
 31
0.0
 73
     3
  0
LINE
  5
4B
  8
PATTERN_FILL
  6
CONTINUOUS
 62
     7
 10
-79.486989606195266
 20
51.423169757707178
 30
0.0
 11
-56.82536087255879
 21
90.674262106628419
 31
0.0
  0
LINE
  5
4C
  8
PATTERN_FILL
  6
CONTINUOUS
 62
     7
 10
-77.174324382968024
 20
51.098696406312172
 30
0.0
 11
-55.388026095786131
 21
88.833671948562227
 31
0.0
  0
LINE
  5
4D
  8
PATTERN_FILL
  6
CONTINUOUS
 62
     7
 10
-74.730432709710612
 20
51.001513933666388
 30
0.0
 11
-54.081917769043571
 21
86.765790911746961
 31
0.0
  0
LINE
  5
4E
  8
PATTERN_FILL
  6
CONTINUOUS
 62
     7
 10
-72.132015638162912
 20
51.1719773019191
 30
0.0
 11
-52.930334840591293
 21
84.430264034033144
 31
0.0
  0
LINE
  5
4F
  8
PATTERN_FILL
  6
CONTINUOUS
 62
     7
 10
-69.340542252129353
 20
51.67682401558335
 30
0.0
 11
-51.97180822662483
 21
81.76035381090766
 31
0.0
  0
LINE
  5
50
  8
PATTERN_FILL
  6
CONTINUOUS
 62
     7
 10
-66.285612224348142
 20
52.637991018346099
 30
0.0
 11
-51.276738254406041
 21
78.634123298683875
 31
0.0
  0
LINE
  5
51
  8
PATTERN_FILL
  6
CONTINUOUS
 62
     7
 10
-62.811356736217128
 20
54.325451023341678
 30
0.0
 11
-51.000993742536927
 21
74.781599784227225
 31
0.0
  0
LINE
  5
52
  8
PATTERN_FILL
  6
CONTINUOUS
 62
     7
 10
-58.360140928572953
 20
57.705055938713059
 30
0.0
 11
-51.702209550181131
 21
69.236931359394717
 31
0.0
  0
LINE
  5
53
  8
PATTERN_FILL
  6
CONTINUOUS
 62
     7
 10
-52.664790829424881
 20
83.782848701113963
 30
0.0
 11
-56.226225321952818
 21
89.951434190000612
 31
0.0
  0
LINE
  5
54
  8
PATTERN_FILL
  6
CONTINUOUS
 62
     7
 10
-51.058170779721301
 20
76.669974127646142
 30
0.0
 11
-61.582845371656163
 21
94.899245254006715
 31
0.0
  0
LINE
  5
55
  8
PATTERN_FILL
  6
CONTINUOUS
 62
     7
 10
-51.133661028214647
 20
72.470600054590449
 30
0.0
 11
-65.257355123162938
 21
96.933555817601487
 31
0.0
  0
LINE
  5
56
  8
PATTERN_FILL
  6
CONTINUOUS
 62
     7
 10
-51.721650451599771
 20
69.158900591284521
 30
0.0
 11
-68.419365699777813
 21
98.08019177144638
 31
0.0
  0
LINE
  5
57
  8
PATTERN_FILL
  6
CONTINUOUS
 62
     7
 10
-52.607766724982071
 20
66.36357197927407
 30
0.0
 11
-71.283249426395514
 21
98.710456873995767
 31
0.0
  0
LINE
  5
58
  8
PATTERN_FILL
  6
CONTINUOUS
 62
     7
 10
-53.704201761717968
 20
63.932526151176987
 30
0.0
 11
-73.936814389659745
 21
98.976439192631815
 31
0.0
  0
LINE
  5
59
  8
PATTERN_FILL
  6
CONTINUOUS
 62
     7
 10
-54.965077360033661
 20
61.786299730561382
 30
0.0
 11
-76.425938791343924
 21
98.957602103786201
 31
0.0
  0
LINE
  5
5A
  8
PATTERN_FILL
  6
CONTINUOUS
 62
     7
 10
-56.363328089230791
 20
59.878014016328848
 30
0.0
 11
-78.777688062146822
 21
98.700824308557543
 31
0.0
  0
LINE
  5
5B
  8
PATTERN_FILL
  6
CONTINUOUS
 62
     7
 10
-57.881950095799887
 20
58.178217470276479
 30
0.0
 11
-81.009066055577804
 21
98.235557345149033
 31
0.0
  0
LINE
  5
5C
  8
PATTERN_FILL
  6
CONTINUOUS
 62
     7
 10
-58.740818495234187
 20
55.335694156189817
 30
0.0
 11
-58.748729639061601
 21
55.349396659245031
 31
0.0
  0
LINE
  5
5D
  8
PATTERN_FILL
  6
CONTINUOUS
 62
     7
 10
-98.703475266859186
 20
78.761018515429342
 30
0.0
 11
-90.108875211895125
 21
93.647302481361464
 31
0.0
  0
LINE
  5
5E
  8
PATTERN_FILL
  6
CONTINUOUS
 62
     7
 10
-98.548876020772369
 20
70.368538226619023
 30
0.0
 11
-82.763474457981843
 21
97.709655751249556
 31
0.0
  0
LINE
  5
5F
  8
PATTERN_FILL
  6
CONTINUOUS
 62
     7
 10
-97.764107370583474
 20
67.397670382011256
 30
0.0
 11
-79.798243108170723
 21
98.515460086396075
 31
0.0
  0
LINE
  5
60
  8
PATTERN_FILL
  6
CONTINUOUS
 62
     7
 10
-96.73445554337728
 20
64.850952641916393
 30
0.0
 11
-77.070136213270985
 21
98.910552817919211
 31
0.0
  0
LINE
  5
61
  8
PATTERN_FILL
  6
CONTINUOUS
 62
     7
 10
-95.48445554337728
 20
62.685889132455323
 30
0.0
 11
-74.521250987875419
 21
98.995224512043833
 31
0.0
  0
LINE
  5
62
  8
PATTERN_FILL
  6
CONTINUOUS
 62
     7
 10
-94.193638798615879
 20
60.591522298720463
 30
0.0
 11
-72.118711680138276
 21
98.826417641303607
 31
0.0
  0
LINE
  5
63
  8
PATTERN_FILL
  6
CONTINUOUS
 62
     7
 10
-92.720097648010878
 20
58.813643419689612
 30
0.0
 11
-69.842252830743178
 21
98.439233010873565
 31
0.0
  0
LINE
  5
64
  8
PATTERN_FILL
  6
CONTINUOUS
 62
     7
 10
-91.133431522070268
 20
57.231702745545043
 30
0.0
 11
-67.678918956683901
 21
97.856110175556864
 31
0.0
  0
LINE
  5
65
  8
PATTERN_FILL
  6
CONTINUOUS
 62
     7
 10
-89.441858845668776
 20
55.831465546845429
 30
0.0
 11
-65.620491633085294
 21
97.091283864795571
 31
0.0
  0
LINE
  5
66
  8
PATTERN_FILL
  6
CONTINUOUS
 62
     7
 10
-87.650193666009955
 20
54.604593649244393
 30
0.0
 11
-63.662156812744122
 21
96.153092252935522
 31
0.0
  0
LINE
  5
67
  8
PATTERN_FILL
  6
CONTINUOUS
 62
     7
 10
-85.760525057611375
 20
53.547468669536428
 30
0.0
 11
-61.80182542114278
 21
95.045153723182153
 31
0.0
  0
LINE
  5
68
  8
PATTERN_FILL
  6
CONTINUOUS
 62
     7
 10
-83.772489583639626
 20
52.660720098782633
 30
0.0
 11
-60.039860895114529
 21
93.766838784475027
 31
0.0
  0
LINE
  5
69
  8
PATTERN_FILL
  6
CONTINUOUS
 62
     7
 10
-81.683224851615805
 20
51.949305746187378
 30
0.0
 11
-58.379125627138357
 21
92.313189627609162
 31
0.0
  0
LINE
  5
6A
  8
PATTERN_FILL
  6
CONTINUOUS
 62
     7
 10
-61.240818495234187
 20
55.335694156189817
 30
0.0
 11
-85.150197656143519
 21
96.747953640313497
 31
0.0
  0
LINE
  5
6B
  8
PATTERN_FILL
  6
CONTINUOUS
 62
     7
 10
-63.070577122953182
 20
54.174802046064542
 30
0.0
 11
-87.070439028424417
 21
95.743782240977538
 31
0.0
  0
LINE
  5
6C
  8
PATTERN_FILL
  6
CONTINUOUS
 62
     7
 10
-64.998193198453464
 20
53.183404007395353
 30
0.0
 11
-88.892822952924234
 21
94.570116770185791
 31
0.0
  0
LINE
  5
6D
  8
PATTERN_FILL
  6
CONTINUOUS
 62
     7
 10
-67.024976180890675
 20
52.363768089970428
 30
0.0
 11
-90.616039970486867
 21
93.224689178149418
 31
0.0
  0
LINE
  5
6E
  8
PATTERN_FILL
  6
CONTINUOUS
 62
     7
 10
-69.154838139043605
 20
51.722670195677168
 30
0.0
 11
-92.236178012334122
 21
91.700723562981935
 31
0.0
  0
LINE
  5
6F
  8
PATTERN_FILL
  6
CONTINUOUS
 62
     7
 10
-71.394829013905792
 20
51.27232118050685
 30
0.0
 11
-93.746187137471907
 21
89.986009068691018
 31
0.0
  0
LINE
  5
70
  8
PATTERN_FILL
  6
CONTINUOUS
 62
     7
 10
-73.756224077339539
 20
51.032250388194342
 30
0.0
 11
-95.134792074038174
 21
88.061016351542449
 31
0.0
  0
LINE
  5
71
  8
PATTERN_FILL
  6
CONTINUOUS
 62
     7
 10
-76.256610604889843
 20
51.032919873549837
 30
0.0
 11
-96.384405546487983
 21
85.895283356725955
 31
0.0
  0
LINE
  5
72
  8
PATTERN_FILL
  6
CONTINUOUS
 62
     7
 10
-78.924072253328632
 20
51.322971956965141
 30
0.0
 11
-97.466943898048953
 21
83.440167763849274
 31
0.0
  0
LINE
  5
73
  8
PATTERN_FILL
  6
CONTINUOUS
 62
     7
 10
-81.806534327331846
 20
51.985415701106987
 30
0.0
 11
-98.334481824045952
 21
80.612660510246613
 31
0.0
  0
LINE
  5
74
  8
PATTERN_FILL
  6
CONTINUOUS
 62
     7
 10
-59.510041824958421
 20
56.668028045639502
 30
0.0
 11
-83.130974326419263
 21
97.580683260324804
 31
0.0
  0
LINE
  5
75
  8
PATTERN_FILL
  6
CONTINUOUS
 62
     7
 10
-94.585561306829476
 20
61.128958644123742
 30
0.0
 11
-96.80545484454889
 21
64.973927038847449
 31
0.0
  0
LINE
  5
76
  8
PATTERN_FILL
  6
CONTINUOUS
 62
     7
 10
-98.977308310871877
 20
73.95659875148587
 30
0.0
 11
-86.085042167882293
 21
96.286658735843901
 31
0.0
  0
LINE
  5
77
  8
PATTERN_FILL
  6
CONTINUOUS
 62
     7
 10
-84.996892960507921
 20
53.181151929211673
 30
0.0
 11
-98.894123190869891
 21
77.2518607726808
 31
0.0
  0
LINE
  5
78
  8
PATTERN_FILL
  6
CONTINUOUS
 62
     7
 10
-88.728407141466164
 20
55.314197060872878
 30
0.0
 11
-98.912609009911634
 21
72.953752131558431
 31
0.0
  0
LINE
  5
79
  8
PATTERN_FILL
  6
CONTINUOUS
 62
     7
 10
55.20912642924646
 20
2.992326114768701
 30
0.0
 11
58.100308294898568
 21
7.9999999999999867
 31
0.0
  0
LINE
  5
7A
  8
PATTERN_FILL
  6
CONTINUOUS
 62
     7
 10
54.526551463767298
 20
-2.5200554243379818
 30
0.0
 11
60.600308294898568
 21
7.9999999999999867
 31
0.0
  0
LINE
  5
7B
  8
PATTERN_FILL
  6
CONTINUOUS
 62
     7
 10
53.843976498288157
 20
-8.0324369634445816
 30
0.0
 11
63.100308294898568
 21
7.9999999999999867
 31
0.0
  0
LINE
  5
7C
  8
PATTERN_FILL
  6
CONTINUOUS
 62
     7
 10
53.161401532809009
 20
-13.544818502551189
 30
0.0
 11
65.600308294898582
 21
7.9999999999999867
 31
0.0
  0
LINE
  5
7D
  8
PATTERN_FILL
  6
CONTINUOUS
 62
     7
 10
52.478826567329847
 20
-19.057200041657811
 30
0.0
 11
68.100308294898582
 21
7.9999999999999867
 31
0.0
  0
LINE
  5
7E
  8
PATTERN_FILL
  6
CONTINUOUS
 62
     7
 10
51.79625160185072
 20
-24.569581580764389
 30
0.0
 11
70.600308294898582
 21
7.9999999999999867
 31
0.0
  0
LINE
  5
7F
  8
PATTERN_FILL
  6
CONTINUOUS
 62
     7
 10
51.113676636371572
 20
-30.081963119870998
 30
0.0
 11
73.100308294898582
 21
7.9999999999999867
 31
0.0
  0
LINE
  5
80
  8
PATTERN_FILL
  6
CONTINUOUS
 62
     7
 10
53.083647796503108
 20
-30.999999999999929
 30
0.0
 11
75.600308294898582
 21
7.9999999999999867
 31
0.0
  0
LINE
  5
81
  8
PATTERN_FILL
  6
CONTINUOUS
 62
     7
 10
55.583647796503108
 20
-30.999999999999929
 30
0.0
 11
78.100308294898582
 21
7.9999999999999867
 31
0.0
  0
LINE
  5
82
  8
PATTERN_FILL
  6
CONTINUOUS
 62
     7
 10
58.083647796503108
 20
-30.999999999999929
 30
0.0
 11
80.600308294898596
 21
7.9999999999999867
 31
0.0
  0
LINE
  5
83
  8
PATTERN_FILL
  6
CONTINUOUS
 62
     7
 10
60.583647796503108
 20
-30.999999999999929
 30
0.0
 11
83.100308294898596
 21
7.9999999999999867
 31
0.0
  0
LINE
  5
84
  8
PATTERN_FILL
  6
CONTINUOUS
 62
     7
 10
63.083647796503108
 20
-30.999999999999929
 30
0.0
 11
85.600308294898596
 21
7.9999999999999867
 31
0.0
  0
LINE
  5
85
  8
PATTERN_FILL
  6
CONTINUOUS
 62
     7
 10
65.583647796503101
 20
-30.999999999999929
 30
0.0
 11
88.100308294898596
 21
7.9999999999999867
 31
0.0
  0
LINE
  5
86
  8
PATTERN_FILL
  6
CONTINUOUS
 62
     7
 10
68.083647796503101
 20
-30.999999999999929
 30
0.0
 11
90.600308294898596
 21
7.9999999999999867
 31
0.0
  0
LINE
  5
87
  8
PATTERN_FILL
  6
CONTINUOUS
 62
     7
 10
70.583647796503101
 20
-30.999999999999929
 30
0.0
 11
92.839641327241111
 21
7.5485115681623238
 31
0.0
  0
LINE
  5
88
  8
PATTERN_FILL
  6
CONTINUOUS
 62
     7
 10
73.083647796503101
 20
-30.999999999999929
 30
0.0
 11
94.254086746900384
 21
5.6682758806231561
 31
0.0
  0
LINE
  5
89
  8
PATTERN_FILL
  6
CONTINUOUS
 62
     7
 10
75.583647796503101
 20
-30.999999999999918
 30
0.0
 11
94.864735888010841
 21
2.3958241997024881
 31
0.0
  0
LINE
  5
8A
  8
PATTERN_FILL
  6
CONTINUOUS
 62
     7
 10
78.083647796503101
 20
-30.999999999999929
 30
0.0
 11
95.306229088579784
 21
-1.1696141646380189
 31
0.0
  0
LINE
  5
8B
  8
PATTERN_FILL
  6
CONTINUOUS
 62
     7
 10
80.583647796503215
 20
-30.999999999999918
 30
0.0
 11
95.747722289148797
 21
-4.7350525289784846
 31
0.0
  0
LINE
  5
8C
  8
PATTERN_FILL
  6
CONTINUOUS
 62
     7
 10
83.083647796503087
 20
-30.999999999999929
 30
0.0
 11
96.189215489717867
 21
-8.3004908933189387
 31
0.0
  0
LINE
  5
8D
  8
PATTERN_FILL
  6
CONTINUOUS
 62
     7
 10
85.583647796503087
 20
-30.999999999999918
 30
0.0
 11
96.630708690286866
 21
-11.865929257659429
 31
0.0
  0
LINE
  5
8E
  8
PATTERN_FILL
  6
CONTINUOUS
 62
     7
 10
88.083647796503087
 20
-30.999999999999929
 30
0.0
 11
97.072201890855794
 21
-15.43136762199987
 31
0.0
  0
LINE
  5
8F
  8
PATTERN_FILL
  6
CONTINUOUS
 62
     7
 10
90.583647796503087
 20
-30.999999999999929
 30
0.0
 11
97.513695091424864
 21
-18.996805986340348
 31
0.0
  0
LINE
  5
90
  8
PATTERN_FILL
  6
CONTINUOUS
 62
     7
 10
93.083647796503087
 20
-30.999999999999929
 30
0.0
 11
97.955188291993863
 21
-22.562244350680778
 31
0.0
  0
LINE
  5
91
  8
PATTERN_FILL
  6
CONTINUOUS
 62
     7
 10
95.583647796503087
 20
-30.999999999999929
 30
0.0
 11
98.396681492562848
 21
-26.127682715021251
 31
0.0
  0
LINE
  5
92
  8
PATTERN_FILL
  6
CONTINUOUS
 62
     7
 10
98.083647796503087
 20
-30.999999999999918
 30
0.0
 11
98.838174693131947
 21
-29.69312107936172
 31
0.0
  0
LINE
  5
93
  8
PATTERN_FILL
  6
CONTINUOUS
 62
     7
 10
94.954233938835614
 20
1.673050250900999
 30
0.0
 11
91.301367798044126
 21
7.9999999999999867
 31
0.0
  0
LINE
  5
94
  8
PATTERN_FILL
  6
CONTINUOUS
 62
     7
 10
95.636808904314648
 20
-3.8393312882056132
 30
0.0
 11
88.801367798044112
 21
7.9999999999999867
 31
0.0
  0
LINE
  5
95
  8
PATTERN_FILL
  6
CONTINUOUS
 62
     7
 10
96.319383869793796
 20
-9.3517128273122392
 30
0.0
 11
86.301367798044112
 21
7.9999999999999867
 31
0.0
  0
LINE
  5
96
  8
PATTERN_FILL
  6
CONTINUOUS
 62
     7
 10
97.001958835272944
 20
-14.86409436641887
 30
0.0
 11
83.801367798044112
 21
7.9999999999999867
 31
0.0
  0
LINE
  5
97
  8
PATTERN_FILL
  6
CONTINUOUS
 62
     7
 10
97.684533800752092
 20
-20.376475905525499
 30
0.0
 11
81.301367798044112
 21
7.9999999999999867
 31
0.0
  0
LINE
  5
98
  8
PATTERN_FILL
  6
CONTINUOUS
 62
     7
 10
98.367108766231226
 20
-25.888857444632102
 30
0.0
 11
78.801367798044112
 21
7.9999999999999867
 31
0.0
  0
LINE
  5
99
  8
PATTERN_FILL
  6
CONTINUOUS
 62
     7
 10
98.818028296439493
 20
-30.999999999999918
 30
0.0
 11
76.301367798044112
 21
7.9999999999999867
 31
0.0
  0
LINE
  5
9A
  8
PATTERN_FILL
  6
CONTINUOUS
 62
     7
 10
96.318028296439493
 20
-30.999999999999929
 30
0.0
 11
73.801367798044112
 21
7.9999999999999867
 31
0.0
  0
LINE
  5
9B
  8
PATTERN_FILL
  6
CONTINUOUS
 62
     7
 10
93.818028296439493
 20
-30.999999999999929
 30
0.0
 11
71.301367798044112
 21
7.9999999999999867
 31
0.0
  0
LINE
  5
9C
  8
PATTERN_FILL
  6
CONTINUOUS
 62
     7
 10
91.318028296439493
 20
-30.999999999999918
 30
0.0
 11
68.801367798044112
 21
7.9999999999999867
 31
0.0
  0
LINE
  5
9D
  8
PATTERN_FILL
  6
CONTINUOUS
 62
     7
 10
88.818028296439479
 20
-30.999999999999918
 30
0.0
 11
66.301367798044112
 21
7.9999999999999867
 31
0.0
  0
LINE
  5
9E
  8
PATTERN_FILL
  6
CONTINUOUS
 62
     7
 10
86.318028296439479
 20
-30.999999999999929
 30
0.0
 11
63.801367798044112
 21
7.9999999999999867
 31
0.0
  0
LINE
  5
9F
  8
PATTERN_FILL
  6
CONTINUOUS
 62
     7
 10
83.818028296439479
 20
-30.999999999999918
 30
0.0
 11
61.301367798044112
 21
7.9999999999999867
 31
0.0
  0
LINE
  5
A0
  8
PATTERN_FILL
  6
CONTINUOUS
 62
     7
 10
81.318028296439479
 20
-30.999999999999929
 30
0.0
 11
58.801367798044112
 21
7.9999999999999867
 31
0.0
  0
LINE
  5
A1
  8
PATTERN_FILL
  6
CONTINUOUS
 62
     7
 10
78.818028296439479
 20
-30.999999999999929
 30
0.0
 11
56.821840068834952
 21
7.0985155830594797
 31
0.0
  0
LINE
  5
A2
  8
PATTERN_FILL
  6
CONTINUOUS
 62
     7
 10
76.318028296439479
 20
-30.999999999999918
 30
0.0
 11
55.471094937876607
 21
5.1079477590332356
 31
0.0
  0
LINE
  5
A3
  8
PATTERN_FILL
  6
CONTINUOUS
 62
     7
 10
73.818028296439479
 20
-30.999999999999929
 30
0.0
 11
55.029601737307637
 21
1.5425093946927431
 31
0.0
  0
LINE
  5
A4
  8
PATTERN_FILL
  6
CONTINUOUS
 62
     7
 10
71.318028296439479
 20
-30.999999999999929
 30
0.0
 11
54.588108536738673
 21
-2.0229289696477499
 31
0.0
  0
LINE
  5
A5
  8
PATTERN_FILL
  6
CONTINUOUS
 62
     7
 10
68.818028296439479
 20
-30.99999999999995
 30
0.0
 11
54.146615336169702
 21
-5.5883673339882307
 31
0.0
  0
LINE
  5
A6
  8
PATTERN_FILL
  6
CONTINUOUS
 62
     7
 10
66.318028296439365
 20
-30.999999999999918
 30
0.0
 11
53.705122135600611
 21
-9.1538056983286964
 31
0.0
  0
LINE
  5
A7
  8
PATTERN_FILL
  6
CONTINUOUS
 62
     7
 10
63.818028296439373
 20
-30.999999999999918
 30
0.0
 11
53.263628935031662
 21
-12.71924406266916
 31
0.0
  0
LINE
  5
A8
  8
PATTERN_FILL
  6
CONTINUOUS
 62
     7
 10
61.318028296439479
 20
-30.999999999999929
 30
0.0
 11
52.822135734462677
 21
-16.28468242700967
 31
0.0
  0
LINE
  5
A9
  8
PATTERN_FILL
  6
CONTINUOUS
 62
     7
 10
58.818028296439373
 20
-30.999999999999918
 30
0.0
 11
52.380642533893592
 21
-19.850120791350118
 31
0.0
  0
LINE
  5
AA
  8
PATTERN_FILL
  6
CONTINUOUS
 62
     7
 10
56.318028296439373
 20
-30.999999999999918
 30
0.0
 11
51.939149333324607
 21
-23.415559155690591
 31
0.0
  0
LINE
  5
AB
  8
PATTERN_FILL
  6
CONTINUOUS
 62
     7
 10
53.818028296439373
 20
-30.999999999999918
 30
0.0
 11
51.497656132755651
 21
-26.98099752003106
 31
0.0
  0
LINE
  5
AC
  8
PATTERN_FILL
  6
CONTINUOUS
 62
     7
 10
51.318028296439479
 20
-30.999999999999929
 30
0.0
 11
51.056162932186567
 21
-30.546435884371508
 31
0.0
  0
LINE
  5
AD
  8
PATTERN_FILL
  6
CONTINUOUS
 62
     7
 10
52.500132417520248
 20
-45.001059340162563
 30
0.0
 11
54.810145104606931
 21
-40.999999999999929
 31
0.0
  0
LINE
  5
AE
  8
PATTERN_FILL
  6
CONTINUOUS
 62
     7
 10
52.945067108526473
 20
-48.56053686821209
 30
0.0
 11
57.310145104606931
 21
-40.999999999999929
 31
0.0
  0
LINE
  5
AF
  8
PATTERN_FILL
  6
CONTINUOUS
 62
     7
 10
55.19134295108983
 20
-48.999999999999922
 30
0.0
 11
59.810145104606931
 21
-40.999999999999929
 31
0.0
  0
LINE
  5
B0
  8
PATTERN_FILL
  6
CONTINUOUS
 62
     7
 10
57.69134295108983
 20
-48.999999999999943
 30
0.0
 11
62.310145104606931
 21
-40.999999999999929
 31
0.0
  0
LINE
  5
B1
  8
PATTERN_FILL
  6
CONTINUOUS
 62
     7
 10
60.19134295108983
 20
-48.999999999999943
 30
0.0
 11
64.810145104606931
 21
-40.999999999999929
 31
0.0
  0
LINE
  5
B2
  8
PATTERN_FILL
  6
CONTINUOUS
 62
     7
 10
62.69134295108983
 20
-48.999999999999943
 30
0.0
 11
67.310145104606931
 21
-40.999999999999929
 31
0.0
  0
LINE
  5
B3
  8
PATTERN_FILL
  6
CONTINUOUS
 62
     7
 10
65.191342951089837
 20
-48.999999999999922
 30
0.0
 11
69.810145104606931
 21
-40.999999999999929
 31
0.0
  0
LINE
  5
B4
  8
PATTERN_FILL
  6
CONTINUOUS
 62
     7
 10
67.691342951089837
 20
-48.999999999999922
 30
0.0
 11
72.310145104606931
 21
-40.999999999999929
 31
0.0
  0
LINE
  5
B5
  8
PATTERN_FILL
  6
CONTINUOUS
 62
     7
 10
70.191342951089837
 20
-48.999999999999943
 30
0.0
 11
74.810145104606931
 21
-40.999999999999922
 31
0.0
  0
LINE
  5
B6
  8
PATTERN_FILL
  6
CONTINUOUS
 62
     7
 10
72.691342951089808
 20
-48.999999999999922
 30
0.0
 11
77.310145104606931
 21
-40.999999999999929
 31
0.0
  0
LINE
  5
B7
  8
PATTERN_FILL
  6
CONTINUOUS
 62
     7
 10
75.191342951089808
 20
-48.999999999999922
 30
0.0
 11
79.810145104606931
 21
-40.999999999999929
 31
0.0
  0
LINE
  5
B8
  8
PATTERN_FILL
  6
CONTINUOUS
 62
     7
 10
77.691342951089808
 20
-48.999999999999943
 30
0.0
 11
82.310145104606946
 21
-40.999999999999929
 31
0.0
  0
LINE
  5
B9
  8
PATTERN_FILL
  6
CONTINUOUS
 62
     7
 10
80.191342951089808
 20
-48.999999999999922
 30
0.0
 11
84.810145104606946
 21
-40.999999999999929
 31
0.0
  0
LINE
  5
BA
  8
PATTERN_FILL
  6
CONTINUOUS
 62
     7
 10
82.691342951089808
 20
-48.999999999999922
 30
0.0
 11
87.310145104606946
 21
-40.999999999999929
 31
0.0
  0
LINE
  5
BB
  8
PATTERN_FILL
  6
CONTINUOUS
 62
     7
 10
85.191342951089808
 20
-48.999999999999922
 30
0.0
 11
89.810145104606946
 21
-40.999999999999929
 31
0.0
  0
LINE
  5
BC
  8
PATTERN_FILL
  6
CONTINUOUS
 62
     7
 10
87.691342951089808
 20
-48.999999999999922
 30
0.0
 11
92.310145104606917
 21
-40.999999999999929
 31
0.0
  0
LINE
  5
BD
  8
PATTERN_FILL
  6
CONTINUOUS
 62
     7
 10
90.191342951089837
 20
-48.999999999999922
 30
0.0
 11
94.810145104606917
 21
-40.999999999999922
 31
0.0
  0
LINE
  5
BE
  8
PATTERN_FILL
  6
CONTINUOUS
 62
     7
 10
92.691342951089837
 20
-48.999999999999922
 30
0.0
 11
97.310145104606917
 21
-40.999999999999929
 31
0.0
  0
LINE
  5
BF
  8
PATTERN_FILL
  6
CONTINUOUS
 62
     7
 10
95.191342951089837
 20
-48.999999999999922
 30
0.0
 11
97.499794399412636
 21
-45.001644804699062
 31
0.0
  0
LINE
  5
C0
  8
PATTERN_FILL
  6
CONTINUOUS
 62
     7
 10
97.838316248402535
 20
-42.293470012779323
 30
0.0
 11
97.091530988335649
 21
-40.999999999999929
 31
0.0
  0
LINE
  5
C1
  8
PATTERN_FILL
  6
CONTINUOUS
 62
     7
 10
97.393381557396424
 20
-45.85294754082885
 30
0.0
 11
94.591530988335649
 21
-40.999999999999922
 31
0.0
  0
LINE
  5
C2
  8
PATTERN_FILL
  6
CONTINUOUS
 62
     7
 10
96.710333141852644
 20
-48.999999999999922
 30
0.0
 11
92.091530988335649
 21
-40.999999999999929
 31
0.0
  0
LINE
  5
C3
  8
PATTERN_FILL
  6
CONTINUOUS
 62
     7
 10
94.210333141852644
 20
-48.999999999999922
 30
0.0
 11
89.591530988335649
 21
-40.999999999999929
 31
0.0
  0
LINE
  5
C4
  8
PATTERN_FILL
  6
CONTINUOUS
 62
     7
 10
91.710333141852644
 20
-48.999999999999922
 30
0.0
 11
87.091530988335649
 21
-40.999999999999929
 31
0.0
  0
LINE
  5
C5
  8
PATTERN_FILL
  6
CONTINUOUS
 62
     7
 10
89.210333141852743
 20
-48.999999999999922
 30
0.0
 11
84.591530988335649
 21
-40.999999999999929
 31
0.0
  0
LINE
  5
C6
  8
PATTERN_FILL
  6
CONTINUOUS
 62
     7
 10
86.710333141852644
 20
-48.999999999999922
 30
0.0
 11
82.091530988335649
 21
-40.999999999999929
 31
0.0
  0
LINE
  5
C7
  8
PATTERN_FILL
  6
CONTINUOUS
 62
     7
 10
84.210333141852715
 20
-48.999999999999922
 30
0.0
 11
79.591530988335663
 21
-40.999999999999929
 31
0.0
  0
LINE
  5
C8
  8
PATTERN_FILL
  6
CONTINUOUS
 62
     7
 10
81.710333141852644
 20
-48.999999999999922
 30
0.0
 11
77.091530988335663
 21
-40.999999999999929
 31
0.0
  0
LINE
  5
C9
  8
PATTERN_FILL
  6
CONTINUOUS
 62
     7
 10
79.21033314185263
 20
-48.999999999999922
 30
0.0
 11
74.591530988335663
 21
-40.999999999999922
 31
0.0
  0
LINE
  5
CA
  8
PATTERN_FILL
  6
CONTINUOUS
 62
     7
 10
76.71033314185263
 20
-48.999999999999922
 30
0.0
 11
72.091530988335663
 21
-40.999999999999929
 31
0.0
  0
LINE
  5
CB
  8
PATTERN_FILL
  6
CONTINUOUS
 62
     7
 10
74.21033314185263
 20
-48.999999999999922
 30
0.0
 11
69.591530988335649
 21
-40.999999999999929
 31
0.0
  0
LINE
  5
CC
  8
PATTERN_FILL
  6
CONTINUOUS
 62
     7
 10
71.71033314185263
 20
-48.999999999999922
 30
0.0
 11
67.091530988335649
 21
-40.999999999999922
 31
0.0
  0
LINE
  5
CD
  8
PATTERN_FILL
  6
CONTINUOUS
 62
     7
 10
69.21033314185263
 20
-48.999999999999943
 30
0.0
 11
64.591530988335649
 21
-40.999999999999922
 31
0.0
  0
LINE
  5
CE
  8
PATTERN_FILL
  6
CONTINUOUS
 62
     7
 10
66.71033314185263
 20
-48.999999999999943
 30
0.0
 11
62.091530988335649
 21
-40.999999999999922
 31
0.0
  0
LINE
  5
CF
  8
PATTERN_FILL
  6
CONTINUOUS
 62
     7
 10
64.21033314185263
 20
-48.999999999999922
 30
0.0
 11
59.591530988335649
 21
-40.999999999999929
 31
0.0
  0
LINE
  5
D0
  8
PATTERN_FILL
  6
CONTINUOUS
 62
     7
 10
61.710333141852637
 20
-48.999999999999943
 30
0.0
 11
57.091530988335649
 21
-40.999999999999922
 31
0.0
  0
LINE
  5
D1
  8
PATTERN_FILL
  6
CONTINUOUS
 62
     7
 10
59.210333141852637
 20
-48.999999999999922
 30
0.0
 11
54.591530988335649
 21
-40.999999999999929
 31
0.0
  0
LINE
  5
D2
  8
PATTERN_FILL
  6
CONTINUOUS
 62
     7
 10
56.710333141852637
 20
-48.999999999999922
 30
0.0
 11
52.091530988335649
 21
-40.999999999999922
 31
0.0
  0
LINE
  5
D3
  8
PATTERN_FILL
  6
CONTINUOUS
 62
     7
 10
54.210333141852637
 20
-48.999999999999922
 30
0.0
 11
52.665543157512388
 21
-46.324345260099001
 31
0.0
  0
LINE
  5
D4
  8
PATTERN_FILL
  6
CONTINUOUS
 62
     7
 10
-94.790873570753547
 20
2.992326114768701
 30
0.0
 11
-91.899691705101418
 21
7.9999999999999867
 31
0.0
  0
LINE
  5
D5
  8
PATTERN_FILL
  6
CONTINUOUS
 62
     7
 10
-95.473448536232681
 20
-2.5200554243379818
 30
0.0
 11
-89.399691705101418
 21
7.9999999999999867
 31
0.0
  0
LINE
  5
D6
  8
PATTERN_FILL
  6
CONTINUOUS
 62
     7
 10
-96.156023501711843
 20
-8.0324369634445816
 30
0.0
 11
-86.899691705101418
 21
7.9999999999999867
 31
0.0
  0
LINE
  5
D7
  8
PATTERN_FILL
  6
CONTINUOUS
 62
     7
 10
-96.838598467191005
 20
-13.544818502551189
 30
0.0
 11
-84.399691705101404
 21
7.9999999999999867
 31
0.0
  0
LINE
  5
D8
  8
PATTERN_FILL
  6
CONTINUOUS
 62
     7
 10
-97.521173432670111
 20
-19.057200041657811
 30
0.0
 11
-81.899691705101404
 21
7.9999999999999867
 31
0.0
  0
LINE
  5
D9
  8
PATTERN_FILL
  6
CONTINUOUS
 62
     7
 10
-98.203748398149287
 20
-24.569581580764389
 30
0.0
 11
-79.399691705101404
 21
7.9999999999999867
 31
0.0
  0
LINE
  5
DA
  8
PATTERN_FILL
  6
CONTINUOUS
 62
     7
 10
-98.886323363628463
 20
-30.081963119870998
 30
0.0
 11
-76.899691705101404
 21
7.9999999999999867
 31
0.0
  0
LINE
  5
DB
  8
PATTERN_FILL
  6
CONTINUOUS
 62
     7
 10
-96.916352203496913
 20
-30.999999999999929
 30
0.0
 11
-74.399691705101404
 21
7.9999999999999867
 31
0.0
  0
LINE
  5
DC
  8
PATTERN_FILL
  6
CONTINUOUS
 62
     7
 10
-94.416352203496913
 20
-30.999999999999929
 30
0.0
 11
-71.899691705101418
 21
7.9999999999999867
 31
0.0
  0
LINE
  5
DD
  8
PATTERN_FILL
  6
CONTINUOUS
 62
     7
 10
-91.916352203496913
 20
-30.999999999999929
 30
0.0
 11
-69.399691705101418
 21
7.9999999999999867
 31
0.0
  0
LINE
  5
DE
  8
PATTERN_FILL
  6
CONTINUOUS
 62
     7
 10
-97.499867582479723
 20
-45.001059340162563
 30
0.0
 11
-95.189854895393097
 21
-40.999999999999929
 31
0.0
  0
LINE
  5
DF
  8
PATTERN_FILL
  6
CONTINUOUS
 62
     7
 10
-89.416352203496913
 20
-30.999999999999929
 30
0.0
 11
-66.899691705101418
 21
7.9999999999999867
 31
0.0
  0
LINE
  5
E0
  8
PATTERN_FILL
  6
CONTINUOUS
 62
     7
 10
-97.054932891473527
 20
-48.56053686821209
 30
0.0
 11
-92.689854895393097
 21
-40.999999999999929
 31
0.0
  0
LINE
  5
E1
  8
PATTERN_FILL
  6
CONTINUOUS
 62
     7
 10
-86.916352203496913
 20
-30.999999999999929
 30
0.0
 11
-64.399691705101418
 21
7.9999999999999867
 31
0.0
  0
LINE
  5
E2
  8
PATTERN_FILL
  6
CONTINUOUS
 62
     7
 10
-94.808657048910163
 20
-48.999999999999922
 30
0.0
 11
-90.189854895393097
 21
-40.999999999999929
 31
0.0
  0
LINE
  5
E3
  8
PATTERN_FILL
  6
CONTINUOUS
 62
     7
 10
-84.416352203496899
 20
-30.999999999999929
 30
0.0
 11
-61.899691705101418
 21
7.9999999999999867
 31
0.0
  0
LINE
  5
E4
  8
PATTERN_FILL
  6
CONTINUOUS
 62
     7
 10
-92.308657048910163
 20
-48.999999999999943
 30
0.0
 11
-87.689854895393069
 21
-40.999999999999929
 31
0.0
  0
LINE
  5
E5
  8
PATTERN_FILL
  6
CONTINUOUS
 62
     7
 10
-81.916352203496899
 20
-30.999999999999929
 30
0.0
 11
-59.399691705101418
 21
7.9999999999999867
 31
0.0
  0
LINE
  5
E6
  8
PATTERN_FILL
  6
CONTINUOUS
 62
     7
 10
-89.808657048910163
 20
-48.999999999999943
 30
0.0
 11
-85.189854895393069
 21
-40.999999999999929
 31
0.0
  0
LINE
  5
E7
  8
PATTERN_FILL
  6
CONTINUOUS
 62
     7
 10
-79.416352203496899
 20
-30.999999999999929
 30
0.0
 11
-57.160358672758889
 21
7.5485115681623238
 31
0.0
  0
LINE
  5
E8
  8
PATTERN_FILL
  6
CONTINUOUS
 62
     7
 10
-87.308657048910163
 20
-48.999999999999943
 30
0.0
 11
-82.689854895393069
 21
-40.999999999999929
 31
0.0
  0
LINE
  5
E9
  8
PATTERN_FILL
  6
CONTINUOUS
 62
     7
 10
-76.916352203496899
 20
-30.999999999999929
 30
0.0
 11
-55.745913253099609
 21
5.6682758806231561
 31
0.0
  0
LINE
  5
EA
  8
PATTERN_FILL
  6
CONTINUOUS
 62
     7
 10
-84.808657048910163
 20
-48.999999999999922
 30
0.0
 11
-80.189854895393069
 21
-40.999999999999929
 31
0.0
  0
LINE
  5
EB
  8
PATTERN_FILL
  6
CONTINUOUS
 62
     7
 10
-74.416352203496899
 20
-30.999999999999918
 30
0.0
 11
-55.135264111989152
 21
2.3958241997024881
 31
0.0
  0
LINE
  5
EC
  8
PATTERN_FILL
  6
CONTINUOUS
 62
     7
 10
-82.308657048910163
 20
-48.999999999999922
 30
0.0
 11
-77.689854895393069
 21
-40.999999999999929
 31
0.0
  0
LINE
  5
ED
  8
PATTERN_FILL
  6
CONTINUOUS
 62
     7
 10
-71.916352203496899
 20
-30.999999999999929
 30
0.0
 11
-54.693770911420181
 21
-1.1696141646380189
 31
0.0
  0
LINE
  5
EE
  8
PATTERN_FILL
  6
CONTINUOUS
 62
     7
 10
-79.808657048910163
 20
-48.999999999999943
 30
0.0
 11
-75.189854895393069
 21
-40.999999999999922
 31
0.0
  0
LINE
  5
EF
  8
PATTERN_FILL
  6
CONTINUOUS
 62
     7
 10
-69.416352203496785
 20
-30.999999999999918
 30
0.0
 11
-54.252277710851217
 21
-4.7350525289784846
 31
0.0
  0
LINE
  5
F0
  8
PATTERN_FILL
  6
CONTINUOUS
 62
     7
 10
-77.308657048910163
 20
-48.999999999999922
 30
0.0
 11
-72.689854895393069
 21
-40.999999999999929
 31
0.0
  0
LINE
  5
F1
  8
PATTERN_FILL
  6
CONTINUOUS
 62
     7
 10
-66.916352203496899
 20
-30.999999999999929
 30
0.0
 11
-53.810784510282133
 21
-8.3004908933189387
 31
0.0
  0
LINE
  5
F2
  8
PATTERN_FILL
  6
CONTINUOUS
 62
     7
 10
-74.808657048910163
 20
-48.999999999999922
 30
0.0
 11
-70.189854895393069
 21
-40.999999999999929
 31
0.0
  0
LINE
  5
F3
  8
PATTERN_FILL
  6
CONTINUOUS
 62
     7
 10
-64.416352203496899
 20
-30.999999999999918
 30
0.0
 11
-53.369291309713162
 21
-11.865929257659429
 31
0.0
  0
LINE
  5
F4
  8
PATTERN_FILL
  6
CONTINUOUS
 62
     7
 10
-72.308657048910163
 20
-48.999999999999943
 30
0.0
 11
-67.689854895393069
 21
-40.999999999999929
 31
0.0
  0
LINE
  5
F5
  8
PATTERN_FILL
  6
CONTINUOUS
 62
     7
 10
-61.916352203496892
 20
-30.999999999999929
 30
0.0
 11
-52.927798109144192
 21
-15.43136762199987
 31
0.0
  0
LINE
  5
F6
  8
PATTERN_FILL
  6
CONTINUOUS
 62
     7
 10
-69.808657048910163
 20
-48.999999999999922
 30
0.0
 11
-65.189854895393069
 21
-40.999999999999929
 31
0.0
  0
LINE
  5
F7
  8
PATTERN_FILL
  6
CONTINUOUS
 62
     7
 10
-59.416352203496892
 20
-30.999999999999929
 30
0.0
 11
-52.486304908575107
 21
-18.996805986340348
 31
0.0
  0
LINE
  5
F8
  8
PATTERN_FILL
  6
CONTINUOUS
 62
     7
 10
-67.308657048910163
 20
-48.999999999999922
 30
0.0
 11
-62.689854895393069
 21
-40.999999999999929
 31
0.0
  0
LINE
  5
F9
  8
PATTERN_FILL
  6
CONTINUOUS
 62
     7
 10
-56.916352203496892
 20
-30.999999999999929
 30
0.0
 11
-52.044811708006137
 21
-22.562244350680778
 31
0.0
  0
LINE
  5
FA
  8
PATTERN_FILL
  6
CONTINUOUS
 62
     7
 10
-64.808657048910163
 20
-48.999999999999922
 30
0.0
 11
-60.189854895393069
 21
-40.999999999999929
 31
0.0
  0
LINE
  5
FB
  8
PATTERN_FILL
  6
CONTINUOUS
 62
     7
 10
-54.416352203496892
 20
-30.999999999999929
 30
0.0
 11
-51.603318507437173
 21
-26.127682715021251
 31
0.0
  0
LINE
  5
FC
  8
PATTERN_FILL
  6
CONTINUOUS
 62
     7
 10
-62.308657048910163
 20
-48.999999999999922
 30
0.0
 11
-57.689854895393069
 21
-40.999999999999929
 31
0.0
  0
LINE
  5
FD
  8
PATTERN_FILL
  6
CONTINUOUS
 62
     7
 10
-51.916352203496892
 20
-30.999999999999918
 30
0.0
 11
-51.161825306868067
 21
-29.69312107936172
 31
0.0
  0
LINE
  5
FE
  8
PATTERN_FILL
  6
CONTINUOUS
 62
     7
 10
-59.808657048910163
 20
-48.999999999999922
 30
0.0
 11
-55.189854895393069
 21
-40.999999999999922
 31
0.0
  0
LINE
  5
FF
  8
PATTERN_FILL
  6
CONTINUOUS
 62
     7
 10
-57.308657048910163
 20
-48.999999999999922
 30
0.0
 11
-52.689854895393069
 21
-40.999999999999929
 31
0.0
  0
LINE
  5
100
  8
PATTERN_FILL
  6
CONTINUOUS
 62
     7
 10
-54.808657048910163
 20
-48.999999999999922
 30
0.0
 11
-52.500205600587392
 21
-45.001644804699062
 31
0.0
  0
LINE
  5
101
  8
PATTERN_FILL
  6
CONTINUOUS
 62
     7
 10
-55.045766061164379
 20
1.673050250900999
 30
0.0
 11
-58.698632201955888
 21
7.9999999999999867
 31
0.0
  0
LINE
  5
102
  8
PATTERN_FILL
  6
CONTINUOUS
 62
     7
 10
-54.363191095685352
 20
-3.8393312882056132
 30
0.0
 11
-61.198632201955888
 21
7.9999999999999867
 31
0.0
  0
LINE
  5
103
  8
PATTERN_FILL
  6
CONTINUOUS
 62
     7
 10
-53.680616130206211
 20
-9.3517128273122392
 30
0.0
 11
-63.698632201955888
 21
7.9999999999999867
 31
0.0
  0
LINE
  5
104
  8
PATTERN_FILL
  6
CONTINUOUS
 62
     7
 10
-52.998041164727063
 20
-14.86409436641887
 30
0.0
 11
-66.198632201955888
 21
7.9999999999999867
 31
0.0
  0
LINE
  5
105
  8
PATTERN_FILL
  6
CONTINUOUS
 62
     7
 10
-52.315466199247901
 20
-20.376475905525499
 30
0.0
 11
-68.698632201955888
 21
7.9999999999999867
 31
0.0
  0
LINE
  5
106
  8
PATTERN_FILL
  6
CONTINUOUS
 62
     7
 10
-51.63289123376876
 20
-25.888857444632102
 30
0.0
 11
-71.198632201955888
 21
7.9999999999999867
 31
0.0
  0
LINE
  5
107
  8
PATTERN_FILL
  6
CONTINUOUS
 62
     7
 10
-51.181971703560521
 20
-30.999999999999918
 30
0.0
 11
-73.698632201955874
 21
7.9999999999999867
 31
0.0
  0
LINE
  5
108
  8
PATTERN_FILL
  6
CONTINUOUS
 62
     7
 10
-53.681971703560521
 20
-30.999999999999929
 30
0.0
 11
-76.198632201955874
 21
7.9999999999999867
 31
0.0
  0
LINE
  5
109
  8
PATTERN_FILL
  6
CONTINUOUS
 62
     7
 10
-56.181971703560521
 20
-30.999999999999929
 30
0.0
 11
-78.698632201955874
 21
7.9999999999999867
 31
0.0
  0
LINE
  5
10A
  8
PATTERN_FILL
  6
CONTINUOUS
 62
     7
 10
-52.161683751597479
 20
-42.293470012779323
 30
0.0
 11
-52.908469011664351
 21
-40.999999999999929
 31
0.0
  0
LINE
  5
10B
  8
PATTERN_FILL
  6
CONTINUOUS
 62
     7
 10
-58.681971703560521
 20
-30.999999999999918
 30
0.0
 11
-81.198632201955874
 21
7.9999999999999867
 31
0.0
  0
LINE
  5
10C
  8
PATTERN_FILL
  6
CONTINUOUS
 62
     7
 10
-52.606618442603583
 20
-45.85294754082885
 30
0.0
 11
-55.408469011664351
 21
-40.999999999999922
 31
0.0
  0
LINE
  5
10D
  8
PATTERN_FILL
  6
CONTINUOUS
 62
     7
 10
-61.181971703560521
 20
-30.999999999999918
 30
0.0
 11
-83.698632201955874
 21
7.9999999999999867
 31
0.0
  0
LINE
  5
10E
  8
PATTERN_FILL
  6
CONTINUOUS
 62
     7
 10
-53.289666858147363
 20
-48.999999999999922
 30
0.0
 11
-57.908469011664351
 21
-40.999999999999929
 31
0.0
  0
LINE
  5
10F
  8
PATTERN_FILL
  6
CONTINUOUS
 62
     7
 10
-63.681971703560521
 20
-30.999999999999929
 30
0.0
 11
-86.198632201955874
 21
7.9999999999999867
 31
0.0
  0
LINE
  5
110
  8
PATTERN_FILL
  6
CONTINUOUS
 62
     7
 10
-55.789666858147363
 20
-48.999999999999922
 30
0.0
 11
-60.408469011664351
 21
-40.999999999999929
 31
0.0
  0
LINE
  5
111
  8
PATTERN_FILL
  6
CONTINUOUS
 62
     7
 10
-66.181971703560521
 20
-30.999999999999918
 30
0.0
 11
-88.698632201955874
 21
7.9999999999999867
 31
0.0
  0
LINE
  5
112
  8
PATTERN_FILL
  6
CONTINUOUS
 62
     7
 10
-58.289666858147363
 20
-48.999999999999922
 30
0.0
 11
-62.908469011664351
 21
-40.999999999999929
 31
0.0
  0
LINE
  5
113
  8
PATTERN_FILL
  6
CONTINUOUS
 62
     7
 10
-68.681971703560521
 20
-30.999999999999929
 30
0.0
 11
-91.198632201955874
 21
7.9999999999999867
 31
0.0
  0
LINE
  5
114
  8
PATTERN_FILL
  6
CONTINUOUS
 62
     7
 10
-60.789666858147257
 20
-48.999999999999922
 30
0.0
 11
-65.408469011664351
 21
-40.999999999999929
 31
0.0
  0
LINE
  5
115
  8
PATTERN_FILL
  6
CONTINUOUS
 62
     7
 10
-71.181971703560521
 20
-30.999999999999929
 30
0.0
 11
-93.178159931165041
 21
7.0985155830594797
 31
0.0
  0
LINE
  5
116
  8
PATTERN_FILL
  6
CONTINUOUS
 62
     7
 10
-63.289666858147363
 20
-48.999999999999922
 30
0.0
 11
-67.908469011664351
 21
-40.999999999999929
 31
0.0
  0
LINE
  5
117
  8
PATTERN_FILL
  6
CONTINUOUS
 62
     7
 10
-73.681971703560521
 20
-30.999999999999918
 30
0.0
 11
-94.528905062123371
 21
5.1079477590332356
 31
0.0
  0
LINE
  5
118
  8
PATTERN_FILL
  6
CONTINUOUS
 62
     7
 10
-65.789666858147257
 20
-48.999999999999922
 30
0.0
 11
-70.408469011664337
 21
-40.999999999999929
 31
0.0
  0
LINE
  5
119
  8
PATTERN_FILL
  6
CONTINUOUS
 62
     7
 10
-76.181971703560521
 20
-30.999999999999929
 30
0.0
 11
-94.970398262692356
 21
1.5425093946927431
 31
0.0
  0
LINE
  5
11A
  8
PATTERN_FILL
  6
CONTINUOUS
 62
     7
 10
-68.28966685814737
 20
-48.999999999999922
 30
0.0
 11
-72.908469011664337
 21
-40.999999999999929
 31
0.0
  0
LINE
  5
11B
  8
PATTERN_FILL
  6
CONTINUOUS
 62
     7
 10
-78.681971703560521
 20
-30.999999999999929
 30
0.0
 11
-95.411891463261298
 21
-2.0229289696477499
 31
0.0
  0
LINE
  5
11C
  8
PATTERN_FILL
  6
CONTINUOUS
 62
     7
 10
-70.78966685814737
 20
-48.999999999999922
 30
0.0
 11
-75.408469011664337
 21
-40.999999999999922
 31
0.0
  0
LINE
  5
11D
  8
PATTERN_FILL
  6
CONTINUOUS
 62
     7
 10
-81.181971703560535
 20
-30.99999999999995
 30
0.0
 11
-95.853384663830283
 21
-5.5883673339882307
 31
0.0
  0
LINE
  5
11E
  8
PATTERN_FILL
  6
CONTINUOUS
 62
     7
 10
-73.28966685814737
 20
-48.999999999999922
 30
0.0
 11
-77.908469011664337
 21
-40.999999999999929
 31
0.0
  0
LINE
  5
11F
  8
PATTERN_FILL
  6
CONTINUOUS
 62
     7
 10
-83.681971703560635
 20
-30.999999999999918
 30
0.0
 11
-96.294877864399382
 21
-9.1538056983286964
 31
0.0
  0
LINE
  5
120
  8
PATTERN_FILL
  6
CONTINUOUS
 62
     7
 10
-75.78966685814737
 20
-48.999999999999922
 30
0.0
 11
-80.408469011664337
 21
-40.999999999999929
 31
0.0
  0
LINE
  5
121
  8
PATTERN_FILL
  6
CONTINUOUS
 62
     7
 10
-86.18197170356062
 20
-30.999999999999918
 30
0.0
 11
-96.736371064968353
 21
-12.71924406266916
 31
0.0
  0
LINE
  5
122
  8
PATTERN_FILL
  6
CONTINUOUS
 62
     7
 10
-78.28966685814737
 20
-48.999999999999922
 30
0.0
 11
-82.908469011664337
 21
-40.999999999999922
 31
0.0
  0
LINE
  5
123
  8
PATTERN_FILL
  6
CONTINUOUS
 62
     7
 10
-88.681971703560535
 20
-30.999999999999929
 30
0.0
 11
-97.177864265537323
 21
-16.28468242700967
 31
0.0
  0
LINE
  5
124
  8
PATTERN_FILL
  6
CONTINUOUS
 62
     7
 10
-80.78966685814737
 20
-48.999999999999943
 30
0.0
 11
-85.408469011664337
 21
-40.999999999999922
 31
0.0
  0
LINE
  5
125
  8
PATTERN_FILL
  6
CONTINUOUS
 62
     7
 10
-91.181971703560635
 20
-30.999999999999918
 30
0.0
 11
-97.619357466106422
 21
-19.850120791350118
 31
0.0
  0
LINE
  5
126
  8
PATTERN_FILL
  6
CONTINUOUS
 62
     7
 10
-83.28966685814737
 20
-48.999999999999943
 30
0.0
 11
-87.908469011664351
 21
-40.999999999999922
 31
0.0
  0
LINE
  5
127
  8
PATTERN_FILL
  6
CONTINUOUS
 62
     7
 10
-93.681971703560635
 20
-30.999999999999918
 30
0.0
 11
-98.060850666675364
 21
-23.415559155690591
 31
0.0
  0
LINE
  5
128
  8
PATTERN_FILL
  6
CONTINUOUS
 62
     7
 10
-85.78966685814737
 20
-48.999999999999922
 30
0.0
 11
-90.408469011664351
 21
-40.999999999999929
 31
0.0
  0
LINE
  5
129
  8
PATTERN_FILL
  6
CONTINUOUS
 62
     7
 10
-96.181971703560635
 20
-30.999999999999918
 30
0.0
 11
-98.502343867244363
 21
-26.98099752003106
 31
0.0
  0
LINE
  5
12A
  8
PATTERN_FILL
  6
CONTINUOUS
 62
     7
 10
-88.28966685814737
 20
-48.999999999999943
 30
0.0
 11
-92.908469011664351
 21
-40.999999999999922
 31
0.0
  0
LINE
  5
12B
  8
PATTERN_FILL
  6
CONTINUOUS
 62
     7
 10
-98.681971703560535
 20
-30.999999999999929
 30
0.0
 11
-98.943837067813433
 21
-30.546435884371508
 31
0.0
  0
LINE
  5
12C
  8
PATTERN_FILL
  6
CONTINUOUS
 62
     7
 10
-90.789666858147356
 20
-48.999999999999922
 30
0.0
 11
-95.408469011664351
 21
-40.999999999999929
 31
0.0
  0
LINE
  5
12D
  8
PATTERN_FILL
  6
CONTINUOUS
 62
     7
 10
-93.289666858147356
 20
-48.999999999999922
 30
0.0
 11
-97.908469011664351
 21
-40.999999999999922
 31
0.0
  0
LINE
  5
12E
  8
PATTERN_FILL
  6
CONTINUOUS
 62
     7
 10
-95.789666858147356
 20
-48.999999999999922
 30
0.0
 11
-97.334456842487597
 21
-46.324345260099001
 31
0.0
  0
LINE
  5
12F
  8
SPEC
  6
CONTINUOUS
 62
     7
 10
-247.5
 20
367.06362999999999
 30
0.0
 11
225.0
 21
367.06362999999999
 31
0.0
  0
LINE
  5
130
  8
SPEC
  6
CONTINUOUS
 62
     7
 10
-247.5
 20
355.81362999999999
 30
0.0
 11
225.0
 21
355.81362999999999
 31
0.0
  0
LINE
  5
131
  8
SPEC
  6
CONTINUOUS
 62
     7
 10
-247.5
 20
333.31362999999999
 30
0.0
 11
225.0
 21
333.31362999999999
 31
0.0
  0
LINE
  5
132
  8
SPEC
  6
CONTINUOUS
 62
     7
 10
-247.5
 20
344.56362999999999
 30
0.0
 11
225.0
 21
344.56362999999999
 31
0.0
  0
LINE
  5
133
  8
SPEC
  6
CONTINUOUS
 62
     7
 10
-247.5
 20
367.06362999999999
 30
0.0
 11
-247.5
 21
243.31362999999999
 31
0.0
  0
LINE
  5
134
  8
SPEC
  6
CONTINUOUS
 62
     7
 10
-247.5
 20
187.5
 30
0.0
 11
-247.5
 21
120.0
 31
0.0
  0
LINE
  5
135
  8
SPEC
  6
CONTINUOUS
 62
     7
 10
-150.0
 20
367.06362999999999
 30
0.0
 11
-150.0
 21
243.31362999999999
 31
0.0
  0
LINE
  5
136
  8
SPEC
  6
CONTINUOUS
 62
     7
 10
-150.0
 20
187.5
 30
0.0
 11
-150.0
 21
120.0
 31
0.0
  0
LINE
  5
137
  8
SPEC
  6
CONTINUOUS
 62
     7
 10
225.0
 20
367.06362999999999
 30
0.0
 11
225.0
 21
243.31362999999999
 31
0.0
  0
LINE
  5
138
  8
SPEC
  6
CONTINUOUS
 62
     7
 10
225.0
 20
187.5
 30
0.0
 11
225.0
 21
120.0
 31
0.0
  0
LINE
  5
139
  8
SPEC
  6
CONTINUOUS
 62
     7
 10
-247.5
 20
322.06362999999999
 30
0.0
 11
225.0
 21
322.06362999999999
 31
0.0
  0
LINE
  5
13A
  8
SPEC
  6
CONTINUOUS
 62
     7
 10
-247.5
 20
310.81362999999999
 30
0.0
 11
225.0
 21
310.81362999999999
 31
0.0
  0
LINE
  5
13B
  8
SPEC
  6
CONTINUOUS
 62
     7
 10
-247.5
 20
288.31362999999999
 30
0.0
 11
225.0
 21
288.31362999999999
 31
0.0
  0
TEXT
  5
13C
  8
SPEC
 62
     7
 10
-246.34738528589801
 20
302.83745357447901
 30
0.0
 40
5.7009440104166647
  1
レイテンシー
 41
0.7
 11
-246.34738528589801
 21
308.53839758489562
 31
0.0
 73
     3
  0
TEXT
  5
13D
  8
SPEC
 62
     7
 10
-147.29597523484711
 20
302.48298361864607
 30
0.0
 40
5.7009440104166647
  1
8.4ms以下(Interference Protection「LOW」設定時)、10.4ms以下(Interference Protection「MID」設定時)
 41
0.7
 11
-147.29597523484711
 21
308.18392762906279
 31
0.0
 73
     3
  0
TEXT
  5
13E
  8
SPEC
 62
     7
 10
-244.90087469700441
 20
313.91348626838987
 30
0.0
 40
5.7009440104166647
  1
空中線電力
 41
0.7
 11
-244.90087469700441
 21
319.61443027880659
 31
0.0
 73
     3
  0
TEXT
  5
13F
  8
SPEC
 62
     7
 10
-147.43005639440119
 20
313.86065170959159
 30
0.0
 40
5.7009440104166647
  1
10mW
 41
0.7
 11
-147.43005639440119
 21
319.56159572000831
 31
0.0
 73
     3
  0
TEXT
  5
140
  8
SPEC
 62
     7
 10
-244.99439320197621
 20
324.83409288515128
 30
0.0
 40
5.7009440104166647
  1
到達距離
 41
0.7
 11
-244.99439320197621
 21
330.535036895568
 31
0.0
 73
     3
  0
TEXT
  5
141
  8
SPEC
 62
     7
 10
-147.43005639440119
 20
324.84455134465679
 30
0.0
 40
5.7009440104166647
  1
約50m
 41
0.7
 11
-147.43005639440119
 21
330.5454953550734
 31
0.0
 73
     3
  0
TEXT
  5
142
  8
SPEC
 62
     7
 10
-244.68367601193941
 20
336.3046651962124
 30
0.0
 40
5.7009440104166647
  1
搬送波周波数
 41
0.7
 11
-244.68367601193941
 21
342.00560920662912
 31
0.0
 73
     3
  0
TEXT
  5
143
  8
SPEC
 62
     7
 10
-147.30792234259059
 20
335.97349362738402
 30
0.0
 40
5.7009440104166647
  1
2.4GHz帯(2.404～2.420GHz、2.430～2.446GHz、2.454～2.470GHz)
 41
0.7
 11
-147.30792234259059
 21
341.67443763780062
 31
0.0
 73
     3
  0
TEXT
  5
144
  8
SPEC
 62
     7
 10
-244.78452801259701
 20
347.56999188358702
 30
0.0
 40
5.7009440104166647
  1
伝送(変調)方式
 41
0.7
 11
-244.78452801259701
 21
353.27093589400369
 31
0.0
 73
     3
  0
TEXT
  5
145
  8
SPEC
 62
     7
 10
-147.13610893144511
 20
347.25170268405742
 30
0.0
 40
5.7009440104166647
  1
OFDM
 41
0.7
 11
-147.13610893144511
 21
352.95264669447408
 31
0.0
 73
     3
  0
TEXT
  5
146
  8
SPEC
 62
     7
 10
-245.05963481383239
 20
358.78230498418912
 30
0.0
 40
5.7009440104166647
  1
電波形式
 41
0.7
 11
-245.05963481383239
 21
364.48324899460579
 31
0.0
 73
     3
  0
TEXT
  5
147
  8
SPEC
 62
     7
 10
-147.31276410989761
 20
358.77263990176101
 30
0.0
 40
5.7009440104166647
  1
G1D
 41
0.7
 11
-147.31276410989761
 21
364.47358391217767
 31
0.0
 73
     3
  0
TEXT
  5
148
  8
SPEC
 62
     7
 10
-147.69427618460631
 20
291.10057663066073
 30
0.0
 40
5.7009440104166647
  1
12.4ms以下(Interference Protection「HIGH」設定時)
 41
0.7
 11
-147.69427618460631
 21
296.80152064107739
 31
0.0
 73
     3
  0
LINE
  5
149
  8
SPEC
  6
CONTINUOUS
 62
     7
 10
-247.5
 20
322.06362999999999
 30
0.0
 11
225.0
 21
322.06362999999999
 31
0.0
  0
LINE
  5
14A
  8
SPEC
  6
CONTINUOUS
 62
     7
 10
-247.5
 20
265.81362999999999
 30
0.0
 11
225.0
 21
265.81362999999999
 31
0.0
  0
LINE
  5
14B
  8
SPEC
  6
CONTINUOUS
 62
     7
 10
-247.5
 20
254.56362999999999
 30
0.0
 11
225.0
 21
254.56362999999999
 31
0.0
  0
LINE
  5
14C
  8
SPEC
  6
CONTINUOUS
 62
     7
 10
-247.5
 20
243.31362999999999
 30
0.0
 11
225.0
 21
243.31362999999999
 31
0.0
  0
LINE
  5
14D
  8
SPEC
  6
CONTINUOUS
 62
     7
 10
-247.5
 20
277.06362999999999
 30
0.0
 11
225.0
 21
277.06362999999999
 31
0.0
  0
TEXT
  5
14E
  8
SPEC
 62
     7
 10
-243.75
 20
371.24344000000008
 30
0.0
 40
7.3297851562499989
  1
システム性能
 41
0.7
 11
-243.75
 21
378.57322515625009
 31
0.0
 73
     3
  0
TEXT
  5
14F
  8
SPEC
 62
     7
 10
-245.4122517754567
 20
257.6398702533196
 30
0.0
 40
5.7009440104166647
  1
ダイナミックレンジ
 41
0.7
 11
-245.4122517754567
 21
263.34081426373632
 31
0.0
 73
     3
  0
TEXT
  5
150
  8
SPEC
 62
     7
 10
-147.7736326655332
 20
257.43008717521781
 30
0.0
 40
5.7009440104166647
  1
120dB(Aウェイト)
 41
0.7
 11
-147.7736326655332
 21
263.13103118563441
 31
0.0
 73
     3
  0
TEXT
  5
151
  8
SPEC
 62
     7
 10
-244.5628605815281
 20
246.21294132987569
 30
0.0
 40
5.7009440104166647
  1
AD-DA変換
 41
0.7
 11
-244.5628605815281
 21
251.9138853402923
 31
0.0
 73
     3
  0
TEXT
  5
152
  8
SPEC
 62
     7
 10
-147.27657888338359
 20
246.057008865238
 30
0.0
 40
5.7009440104166647
  1
24bit、48kHz
 41
0.7
 11
-147.27657888338359
 21
251.75795287565469
 31
0.0
 73
     3
  0
TEXT
  5
153
  8
SPEC
 62
     7
 10
-244.7714967318405
 20
268.79711318520208
 30
0.0
 40
5.7009440104166647
  1
周波数特性
 41
0.7
 11
-244.7714967318405
 21
274.49805719561869
 31
0.0
 73
     3
  0
TEXT
  5
154
  8
SPEC
 62
     7
 10
-147.06040315754609
 20
268.67442637247268
 30
0.0
 40
5.7009440104166647
  1
20Hz～20kHz(\U+00B13dB）*システム全体の帯域幅はマイクロホンにより変動。
 41
0.7
 11
-147.06040315754609
 21
274.3753703828894
 31
0.0
 73
     3
  0
TEXT
  5
155
  8
SPEC
 62
     7
 10
-244.6053479072408
 20
279.80138532560341
 30
0.0
 40
5.7009440104166647
  1
THD
 41
0.7
 11
-244.6053479072408
 21
285.50232933602013
 31
0.0
 73
     3
  0
TEXT
  5
156
  8
SPEC
 62
     7
 10
-147.0682329020652
 20
279.85861808337739
 30
0.0
 40
5.7009440104166647
  1
0.05%%%以下
 41
0.7
 11
-147.0682329020652
 21
285.55956209379411
 31
0.0
 73
     3
  0
TEXT
  5
157
  8
SPEC
 62
     7
 10
-245.10578999858421
 20
145.40222223581461
 30
0.0
 40
5.7009440104166647
  1
寸法(\U+03A6\U+00D7H)
 41
0.7
 11
-245.10578999858421
 21
151.10316624623121
 31
0.0
 73
     3
  0
TEXT
  5
158
  8
SPEC
 62
     7
 10
-148.02102105099991
 20
145.3226762023277
 30
0.0
 40
5.7009440104166647
  1
51\U+00D7233mm(除突起部)
 41
0.7
 11
-148.02102105099991
 21
151.02362021274439
 31
0.0
 73
     3
  0
TEXT
  5
159
  8
SPEC
 62
     7
 10
-244.99783266969069
 20
133.78423861675509
 30
0.0
 40
5.7009440104166647
  1
質量
 41
0.7
 11
-244.99783266969069
 21
139.4851826271717
 31
0.0
 73
     3
  0
TEXT
  5
15A
  8
SPEC
 62
     7
 10
-244.87625651249749
 20
179.1185097862973
 30
0.0
 40
5.7009440104166647
  1
最大入力音圧レベル
 41
0.7
 11
-244.87625651249749
 21
184.81945379671399
 31
0.0
 73
     3
  0
TEXT
  5
15B
  8
SPEC
 62
     7
 10
-147.72110388549069
 20
178.92989589848989
 30
0.0
 40
5.7009440104166647
  1
129dB SPL(GAIN「HIGH」設定時）、142dB SPL(GAIN「LOW」設定時)
 41
0.7
 11
-147.72110388549069
 21
184.63083990890661
 31
0.0
 73
     3
  0
TEXT
  5
15C
  8
SPEC
 62
     7
 10
-245.09414036416001
 20
168.17151111468041
 30
0.0
 40
5.7009440104166647
  1
電源
 41
0.7
 11
-245.09414036416001
 21
173.87245512509699
 31
0.0
 73
     3
  0
TEXT
  5
15D
  8
SPEC
 62
     7
 10
-147.35122658265661
 20
167.73493826299699
 30
0.0
 40
5.7009440104166647
  1
単3形アルカリ乾電池\U+00D72または単3形ニッケル水素充電池\U+00D72
 41
0.7
 11
-147.35122658265661
 21
173.43588227341371
 31
0.0
 73
     3
  0
TEXT
  5
15E
  8
SPEC
 62
     7
 10
-245.0944711926231
 20
156.87368705636791
 30
0.0
 40
5.7009440104166647
  1
電池寿命
 41
0.7
 11
-245.0944711926231
 21
162.5746310667846
 31
0.0
 73
     3
  0
TEXT
  5
15F
  8
SPEC
 62
     7
 10
-147.61076289450489
 20
156.5341900523197
 30
0.0
 40
5.7009440104166647
  1
アルカリ乾電池:約6時間、ニッケル水素充電池:約7時間　＊使用環境により異なる。
 41
0.7
 11
-147.61076289450489
 21
162.23513406273631
 31
0.0
 73
     3
  0
TEXT
  5
160
  8
SPEC
 62
     7
 10
-147.23906774041089
 20
134.1139025888348
 30
0.0
 40
5.7009440104166647
  1
DHT TETRAD D5:256g
 41
0.7
 11
-147.23906774041089
 21
139.81484659925141
 31
0.0
 73
     3
  0
TEXT
  5
161
  8
SPEC
 62
     7
 10
-147.23906774041089
 20
122.7265574036534
 30
0.0
 40
5.7009440104166647
  1
DHT TETRAD P5:242g
 41
0.7
 11
-147.23906774041089
 21
128.42750141407009
 31
0.0
 73
     3
  0
LINE
  5
162
  8
SPEC
  6
CONTINUOUS
 62
     7
 10
-247.5
 20
176.25
 30
0.0
 11
225.0
 21
176.25
 31
0.0
  0
LINE
  5
163
  8
SPEC
  6
CONTINUOUS
 62
     7
 10
-247.5
 20
165.0
 30
0.0
 11
225.0
 21
165.0
 31
0.0
  0
LINE
  5
164
  8
SPEC
  6
CONTINUOUS
 62
     7
 10
-247.5
 20
153.75
 30
0.0
 11
225.0
 21
153.75
 31
0.0
  0
LINE
  5
165
  8
SPEC
  6
CONTINUOUS
 62
     7
 10
-247.5
 20
142.5
 30
0.0
 11
225.0
 21
142.5
 31
0.0
  0
LINE
  5
166
  8
SPEC
  6
CONTINUOUS
 62
     7
 10
-247.5
 20
120.0
 30
0.0
 11
225.0
 21
120.0
 31
0.0
  0
LINE
  5
167
  8
SPEC
  6
CONTINUOUS
 62
     7
 10
-247.5
 20
187.5
 30
0.0
 11
225.0
 21
187.5
 31
0.0
  0
TEXT
  5
168
  8
SPEC
 62
     7
 10
-243.56662169866499
 20
191.57964480210839
 30
0.0
 40
7.3297851562499989
  1
仕様
 41
0.7
 11
-243.56662169866499
 21
198.9094299583584
 31
0.0
 73
     3
  0
TEXT
  5
169
  8
SPEC
 62
     7
 10
-243.75
 20
231.1288333333334
 30
0.0
 40
5.7009440104166647
  1
※DMS TETRADは2.4GHz帯の周波数を使用しているため、「送信機と受信機の間に障害物がある場合」
 41
0.7
 11
-243.75
 21
236.82977734375001
 31
0.0
 73
     3
  0
TEXT
  5
16A
  8
SPEC
 62
     7
 10
-243.75
 20
223.72049999999999
 30
0.0
 40
5.7009440104166647
  1
　「送信機や受信機を直接地面や床に置いた場合」「雨天時の屋外で使用した場合」「無線LANや電子レンジなど、
 41
0.7
 11
-243.75
 21
229.42144401041671
 31
0.0
 73
     3
  0
TEXT
  5
16B
  8
SPEC
 62
     7
 10
-243.75
 20
216.31216666666671
 30
0.0
 40
5.7009440104166647
  1
　電波を発信する機器が使用されている場所で使用した場合」では、到達距離が短くなったり音が途切れる可能性があります。
 41
0.7
 11
-243.75
 21
222.01311067708329
 31
0.0
 73
     3
  0
TEXT
  5
16C
  8
SPEC
 62
     7
 10
-243.75
 20
208.9038333333333
 30
0.0
 40
5.7009440104166647
  1
　上手く動作しない場合は、障害物を取り除くか、使用場所を変更してください。
 41
0.7
 11
-243.75
 21
214.60477734374999
 31
0.0
 73
     3
  0
TEXT
  5
16D
  8
DIMNSIONS
 62
     7
 10
-59.999999999999979
 20
-346.12790000000001
 30
0.0
 40
7.3297851562499989
  1
(単位：mm)
 41
0.7
 11
-59.999999999999979
 21
-338.79811484374989
 31
0.0
 73
     3
  0
LINE
  5
16E
  8
DIMNSIONS
  6
CONTINUOUS
 62
     7
 10
-54.044162949273861
 20
60.470619644891329
 30
0.0
 11
-37.5
 21
49.000000000110028
 31
0.0
  0
LINE
  5
16F
  8
DIMNSIONS
  6
CONTINUOUS
 62
     7
 10
-54.044162949273861
 20
60.470619644891329
 30
0.0
 11
-46.700788286242009
 21
57.942092973677781
 31
0.0
  0
LINE
  5
170
  8
DIMNSIONS
  6
CONTINUOUS
 62
     7
 10
-54.044162949273861
 20
60.470619644891329
 30
0.0
 11
-48.94887727718806
 21
54.609163981957963
 31
0.0
  0
LINE
  5
171
  8
DIMNSIONS
  6
CONTINUOUS
 62
     7
 10
-37.5
 20
49.000000000110028
 30
0.0
 11
0.2499999999999929
 21
49.000000000110028
 31
0.0
  0
TEXT
  5
172
  8
DIMNSIONS
 62
     7
 10
-31.5
 20
51.481666666776711
 30
0.0
 40
8.1442057291666661
  1
\U+03C651.0
 41
0.7
 11
-31.5
 21
59.625872395943382
 31
0.0
 73
     3
  0
LINE
  5
173
  8
DIMNSIONS
  6
CONTINUOUS
 62
     7
 10
-91.110391366057925
 20
-225.0
 30
0.0
 11
-156.0
 21
-225.0
 31
0.0
  0
LINE
  5
174
  8
DIMNSIONS
  6
CONTINUOUS
 62
     7
 10
-98.500000000000014
 20
7.9999999999999867
 30
0.0
 11
-156.0
 21
7.9999999999999867
 31
0.0
  0
LINE
  5
175
  8
DIMNSIONS
  6
CONTINUOUS
 62
     7
 10
-150.0
 20
-225.0
 30
0.0
 11
-150.0
 21
7.9999999999999867
 31
0.0
  0
LINE
  5
176
  8
DIMNSIONS
  6
CONTINUOUS
 62
     7
 10
-150.0
 20
-225.0
 30
0.0
 11
-152.01011938545071
 21
-217.49813232421869
 31
0.0
  0
LINE
  5
177
  8
DIMNSIONS
  6
CONTINUOUS
 62
     7
 10
-150.0
 20
-225.0
 30
0.0
 11
-147.98988061454921
 21
-217.49813232421869
 31
0.0
  0
LINE
  5
178
  8
DIMNSIONS
  6
CONTINUOUS
 62
     7
 10
-150.0
 20
7.9999999999999867
 30
0.0
 11
-147.98988061454921
 21
0.4981323242187372
 31
0.0
  0
LINE
  5
179
  8
DIMNSIONS
  6
CONTINUOUS
 62
     7
 10
-150.0
 20
7.9999999999999867
 30
0.0
 11
-152.01011938545071
 21
0.4981323242187372
 31
0.0
  0
TEXT
  5
17A
  8
DIMNSIONS
 62
     7
 10
-152.9816666666666
 20
-116.4375
 30
0.0
 40
8.1442057291666661
  1
233
 50
90.0
 41
0.7
 11
-161.12587239583331
 21
-116.4375
 31
0.0
 73
     3
  0
LINE
  5
17B
  8
DIMNSIONS
  6
CONTINUOUS
 62
     7
 10
-97.110391366057925
 20
-225.0
 30
0.0
 11
-131.0
 21
-225.0
 31
0.0
  0
LINE
  5
17C
  8
DIMNSIONS
  6
CONTINUOUS
 62
     7
 10
-104.00000000000171
 20
-49.999999999999929
 30
0.0
 11
-131.0
 21
-49.999999999999929
 31
0.0
  0
LINE
  5
17D
  8
DIMNSIONS
  6
CONTINUOUS
 62
     7
 10
-125.0
 20
-225.0
 30
0.0
 11
-125.0
 21
-49.999999999999929
 31
0.0
  0
LINE
  5
17E
  8
DIMNSIONS
  6
CONTINUOUS
 62
     7
 10
-125.0
 20
-225.0
 30
0.0
 11
-127.01011938545069
 21
-217.49813232421869
 31
0.0
  0
LINE
  5
17F
  8
DIMNSIONS
  6
CONTINUOUS
 62
     7
 10
-125.0
 20
-225.0
 30
0.0
 11
-122.98988061454919
 21
-217.49813232421869
 31
0.0
  0
LINE
  5
180
  8
DIMNSIONS
  6
CONTINUOUS
 62
     7
 10
-125.0
 20
-49.999999999999929
 30
0.0
 11
-122.98988061454919
 21
-57.501867675781178
 31
0.0
  0
LINE
  5
181
  8
DIMNSIONS
  6
CONTINUOUS
 62
     7
 10
-125.0
 20
-49.999999999999929
 30
0.0
 11
-127.01011938545069
 21
-57.501867675781178
 31
0.0
  0
TEXT
  5
182
  8
DIMNSIONS
 62
     7
 10
-127.9816666666666
 20
-145.43749999999989
 30
0.0
 40
8.1442057291666661
  1
175
 50
90.0
 41
0.7
 11
-136.12587239583331
 21
-145.43749999999989
 31
0.0
 73
     3
  0
TEXT
  5
183
  8
DATA
 62
     7
 10
-262.5
 20
-359.30753666666669
 30
0.0
 40
5.7009440104166673
  1
※仕様及び外観は予告なく変更されることがあります。
 41
0.7
 11
-262.5
 21
-353.60659265625009
 31
0.0
 73
     3
  0
TEXT
  5
184
  8
DATA
 62
     7
 10
-262.5
 20
-366.71586999999988
 30
0.0
 40
5.7009440104166673
  1
　また、同一商品でも若干の個体差があることがあります。ご了承ください。
 41
0.7
 11
-262.5
 21
-361.01492598958328
 31
0.0
 73
     3
  0
TEXT
  5
185
  8
DATA
 62
     7
 10
149.99999999999989
 20
-327.7937
 30
0.0
 40
7.3297851562499989
  1
AKG
 41
0.7
 11
149.99999999999989
 21
-320.46391484374988
 31
0.0
 73
     3
  0
TEXT
  5
186
  8
DATA
 62
     7
 10
125.0
 20
-349.54369999999989
 30
0.0
 40
7.3297851562499989
  1
DHT TETRAD D5/DHT TETRAD P5
 41
0.7
 11
125.0
 21
-342.21391484374988
 31
0.0
 73
     3
  0
LINE
  5
187
  8
DATA
  6
CONTINUOUS
 62
     7
 10
-54.144515298843203
 20
-56.299999999999933
 30
0.0
 11
-95.855484701156783
 21
-56.299999999999933
 31
0.0
  0
LINE
  5
188
  8
DATA
  6
CONTINUOUS
 62
     7
 10
-54.179271316821662
 20
-56.59999999999993
 30
0.0
 11
-95.820728683178444
 21
-56.59999999999993
 31
0.0
  0
LINE
  5
189
  8
DATA
  6
CONTINUOUS
 62
     7
 10
-91.5
 20
-56.59999999999993
 30
0.0
 11
-91.5
 21
-56.299999999999933
 31
0.0
  0
LINE
  5
18A
  8
DATA
  6
CONTINUOUS
 62
     7
 10
-58.5
 20
-56.59999999999993
 30
0.0
 11
-58.5
 21
-56.299999999999933
 31
0.0
  0
CIRCLE
  5
18B
  8
DATA
  6
CONTINUOUS
 62
     7
 10
-75.0
 20
-275.0
 30
0.0
 40
25.5
  0
CIRCLE
  5
18C
  8
DATA
  6
CONTINUOUS
 62
     7
 10
-75.0
 20
-275.0
 30
0.0
 40
23.5
  0
CIRCLE
  5
18D
  8
DATA
  6
CONTINUOUS
 62
     7
 10
-75.0
 20
75.0
 30
0.0
 40
25.5
  0
LINE
  5
18E
  8
DATA
  6
CONTINUOUS
 62
     7
 10
-85.110391366057911
 20
-225.0
 30
0.0
 11
-64.8896086339455
 21
-225.0
 31
0.0
  0
LINE
  5
18F
  8
DATA
  6
CONTINUOUS
 62
     7
 10
-90.267949192432766
 20
-185.0
 30
0.0
 11
-59.732050807570538
 21
-185.0
 31
0.0
  0
LINE
  5
190
  8
DATA
  6
CONTINUOUS
 62
     7
 10
-88.108284213185456
 20
-222.11242098176729
 30
0.0
 11
-89.500000000001691
 21
-185.0
 31
0.0
  0
LINE
  5
191
  8
DATA
  6
CONTINUOUS
 62
     7
 10
-61.89171578681794
 20
-222.11242098176729
 30
0.0
 11
-60.500000000001712
 21
-185.0
 31
0.0
  0
LINE
  5
192
  8
DATA
  6
CONTINUOUS
 62
     7
 10
-92.000000000001691
 20
-182.0
 30
0.0
 11
-58.000000000001712
 21
-182.0
 31
0.0
  0
LINE
  5
193
  8
DATA
  6
CONTINUOUS
 62
     7
 10
-92.000000000001691
 20
-182.0
 30
0.0
 11
-90.267949192432766
 21
-185.0
 31
0.0
  0
LINE
  5
194
  8
DATA
  6
CONTINUOUS
 62
     7
 10
-58.000000000001712
 20
-182.0
 30
0.0
 11
-59.732050807570538
 21
-185.0
 31
0.0
  0
LINE
  5
195
  8
DATA
  6
CONTINUOUS
 62
     7
 10
-92.000000000001691
 20
-182.0
 30
0.0
 11
-94.210526315791185
 21
-97.999999999999986
 31
0.0
  0
LINE
  5
196
  8
DATA
  6
CONTINUOUS
 62
     7
 10
-55.789473684212219
 20
-98.0
 30
0.0
 11
-58.000000000001712
 21
-182.0
 31
0.0
  0
LINE
  5
197
  8
DATA
  6
CONTINUOUS
 62
     7
 10
-95.855484701156783
 20
-56.299999999999933
 30
0.0
 11
-98.000000000001691
 21
-49.999999999999929
 31
0.0
  0
LINE
  5
198
  8
DATA
  6
CONTINUOUS
 62
     7
 10
-54.144515298843203
 20
-56.299999999999933
 30
0.0
 11
-52.000000000001698
 21
-49.999999999999929
 31
0.0
  0
LINE
  5
199
  8
DATA
  6
CONTINUOUS
 62
     7
 10
-94.210526315791185
 20
-98.0
 30
0.0
 11
-55.789473684212219
 21
-98.0
 31
0.0
  0
LINE
  5
19A
  8
DATA
  6
CONTINUOUS
 62
     7
 10
-94.210526315791185
 20
-98.0
 30
0.0
 11
-94.500000000001691
 21
-68.0
 31
0.0
  0
LINE
  5
19B
  8
DATA
  6
CONTINUOUS
 62
     7
 10
-55.789473684212219
 20
-98.0
 30
0.0
 11
-55.500000000001712
 21
-68.0
 31
0.0
  0
LINE
  5
19C
  8
DATA
  6
CONTINUOUS
 62
     7
 10
-94.500000000001691
 20
-68.0
 30
0.0
 11
-95.855484701156783
 21
-56.299999999999933
 31
0.0
  0
LINE
  5
19D
  8
DATA
  6
CONTINUOUS
 62
     7
 10
-55.500000000001712
 20
-68.0
 30
0.0
 11
-54.144515298843203
 21
-56.299999999999933
 31
0.0
  0
ARC
  5
19E
  8
DATA
  6
CONTINUOUS
 62
     7
 10
-85.110391366057911
 20
-222.0
 30
0.0
 40
3.0000000000000169
 50
182.1475854282985
 51
270.0
  0
ARC
  5
19F
  8
DATA
  6
CONTINUOUS
 62
     7
 10
-64.8896086339455
 20
-222.0
 30
0.0
 40
3.0
 50
270.0
 51
357.8524145717015
  0
LINE
  5
1A0
  8
DATA
  6
CONTINUOUS
 62
     7
 10
-64.389834608259889
 20
-281.0
 30
0.0
 11
-85.610165391739869
 21
-281.0
 31
0.0
  0
LINE
  5
1A1
  8
DATA
  6
CONTINUOUS
 62
     7
 10
-85.610165391739869
 20
-269.0
 30
0.0
 11
-64.389834608259889
 21
-269.0
 31
0.0
  0
ARC
  5
1A2
  8
DATA
  6
CONTINUOUS
 62
     7
 10
-80.826352529600413
 20
-275.0
 30
0.0
 40
7.6736474703996649
 50
128.5654306111912
 51
231.43456938880891
  0
ARC
  5
1A3
  8
DATA
  6
CONTINUOUS
 62
     7
 10
-69.173647470399601
 20
-275.0
 30
0.0
 40
7.6736474703995929
 50
308.56543061119049
 51
51.434569388809521
  0
ARC
  5
1A4
  8
DATA
  6
CONTINUOUS
 62
     7
 10
-75.0
 20
-275.0
 30
0.0
 40
12.11981848048857
 50
245.63503868221389
 51
294.36496131778722
  0
LINE
  5
1A5
  8
DATA
  6
CONTINUOUS
 62
     7
 10
-79.999999999999872
 20
-281.0
 30
0.0
 11
-79.999999999999872
 21
-286.04038042822759
 31
0.0
  0
LINE
  5
1A6
  8
DATA
  6
CONTINUOUS
 62
     7
 10
-69.999999999999901
 20
-281.0
 30
0.0
 11
-69.999999999999901
 21
-286.04038042822771
 31
0.0
  0
CIRCLE
  5
1A7
  8
DATA
  6
CONTINUOUS
 62
     7
 10
-75.0
 20
-275.0
 30
0.0
 40
17.5
  0
ARC
  5
1A8
  8
DATA
  6
CONTINUOUS
 62
     7
 10
-75.000000000001705
 20
-283.77690189701838
 30
0.0
 40
1.399999999999999
 50
290.92483242764331
 51
249.0751675723576
  0
LINE
  5
1A9
  8
DATA
  6
CONTINUOUS
 62
     7
 10
-75.000000000001705
 20
-283.90000000002692
 30
0.0
 11
-75.000000000001705
 21
-285.81000000002678
 31
0.0
  0
CIRCLE
  5
1AA
  8
DATA
  6
CONTINUOUS
 62
     7
 10
-75.0
 20
-275.0
 30
0.0
 40
4.5
  0
LINE
  5
1AB
  8
DATA
  6
CONTINUOUS
 62
     7
 10
95.855484701156783
 20
-56.299999999999933
 30
0.0
 11
54.144515298843203
 21
-56.299999999999933
 31
0.0
  0
LINE
  5
1AC
  8
DATA
  6
CONTINUOUS
 62
     7
 10
95.820728683178345
 20
-56.59999999999993
 30
0.0
 11
54.179271316821527
 21
-56.59999999999993
 31
0.0
  0
LINE
  5
1AD
  8
DATA
  6
CONTINUOUS
 62
     7
 10
58.5
 20
-56.59999999999993
 30
0.0
 11
58.5
 21
-56.299999999999933
 31
0.0
  0
LINE
  5
1AE
  8
DATA
  6
CONTINUOUS
 62
     7
 10
91.5
 20
-56.59999999999993
 30
0.0
 11
91.5
 21
-56.299999999999933
 31
0.0
  0
CIRCLE
  5
1AF
  8
DATA
  6
CONTINUOUS
 62
     7
 10
75.0
 20
-88.007528690338461
 30
0.0
 40
2.0
  0
LINE
  5
1B0
  8
DATA
  6
CONTINUOUS
 62
     7
 10
64.889608633942089
 20
-225.0
 30
0.0
 11
85.1103913660545
 21
-225.0
 31
0.0
  0
LINE
  5
1B1
  8
DATA
  6
CONTINUOUS
 62
     7
 10
59.732050807567248
 20
-185.0
 30
0.0
 11
90.267949192429427
 21
-185.0
 31
0.0
  0
LINE
  5
1B2
  8
DATA
  6
CONTINUOUS
 62
     7
 10
61.891715786814522
 20
-222.11242098176729
 30
0.0
 11
60.499999999998302
 21
-185.0
 31
0.0
  0
LINE
  5
1B3
  8
DATA
  6
CONTINUOUS
 62
     7
 10
88.108284213182074
 20
-222.11242098176729
 30
0.0
 11
89.499999999998295
 21
-185.0
 31
0.0
  0
LINE
  5
1B4
  8
DATA
  6
CONTINUOUS
 62
     7
 10
57.999999999998302
 20
-182.0
 30
0.0
 11
91.99999999999828
 21
-182.0
 31
0.0
  0
LINE
  5
1B5
  8
DATA
  6
CONTINUOUS
 62
     7
 10
57.999999999998302
 20
-182.0
 30
0.0
 11
59.732050807567248
 21
-185.0
 31
0.0
  0
LINE
  5
1B6
  8
DATA
  6
CONTINUOUS
 62
     7
 10
91.99999999999828
 20
-182.0
 30
0.0
 11
90.267949192429427
 21
-185.0
 31
0.0
  0
LINE
  5
1B7
  8
DATA
  6
CONTINUOUS
 62
     7
 10
57.999999999998302
 20
-182.0
 30
0.0
 11
55.789473684208822
 21
-97.999999999999986
 31
0.0
  0
LINE
  5
1B8
  8
DATA
  6
CONTINUOUS
 62
     7
 10
94.210526315787774
 20
-98.0
 30
0.0
 11
91.99999999999828
 21
-182.0
 31
0.0
  0
LINE
  5
1B9
  8
DATA
  6
CONTINUOUS
 62
     7
 10
51.0
 20
-40.999999999999929
 30
0.0
 11
49.5
 21
-31.999999999999929
 31
0.0
  0
LINE
  5
1BA
  8
DATA
  6
CONTINUOUS
 62
     7
 10
99.0
 20
-40.999999999999929
 30
0.0
 11
100.5
 21
-31.999999999999929
 31
0.0
  0
LINE
  5
1BB
  8
DATA
  6
CONTINUOUS
 62
     7
 10
54.144515298843203
 20
-56.299999999999933
 30
0.0
 11
51.999999999998288
 21
-49.999999999999929
 31
0.0
  0
LINE
  5
1BC
  8
DATA
  6
CONTINUOUS
 62
     7
 10
95.855484701156783
 20
-56.299999999999933
 30
0.0
 11
97.99999999999828
 21
-49.999999999999929
 31
0.0
  0
LINE
  5
1BD
  8
DATA
  6
CONTINUOUS
 62
     7
 10
55.789473684208822
 20
-98.0
 30
0.0
 11
94.210526315787774
 21
-98.0
 31
0.0
  0
LINE
  5
1BE
  8
DATA
  6
CONTINUOUS
 62
     7
 10
55.789473684208822
 20
-98.0
 30
0.0
 11
55.499999999998302
 21
-68.0
 31
0.0
  0
LINE
  5
1BF
  8
DATA
  6
CONTINUOUS
 62
     7
 10
94.210526315787774
 20
-98.0
 30
0.0
 11
94.49999999999828
 21
-68.0
 31
0.0
  0
LINE
  5
1C0
  8
DATA
  6
CONTINUOUS
 62
     7
 10
55.499999999998302
 20
-68.0
 30
0.0
 11
54.144515298843203
 21
-56.299999999999933
 31
0.0
  0
LINE
  5
1C1
  8
DATA
  6
CONTINUOUS
 62
     7
 10
94.49999999999828
 20
-68.0
 30
0.0
 11
95.855484701156783
 21
-56.299999999999933
 31
0.0
  0
ARC
  5
1C2
  8
DATA
  6
CONTINUOUS
 62
     7
 10
64.889608633942089
 20
-222.0
 30
0.0
 40
3.0000000000000169
 50
182.1475854282985
 51
270.0
  0
ARC
  5
1C3
  8
DATA
  6
CONTINUOUS
 62
     7
 10
85.1103913660545
 20
-222.0
 30
0.0
 40
3.0
 50
270.0
 51
357.8524145717015
  0
CIRCLE
  5
1C4
  8
DATA
  6
CONTINUOUS
 62
     7
 10
-75.0
 20
75.0
 30
0.0
 40
19.5
  0
CIRCLE
  5
1C5
  8
DATA
  6
CONTINUOUS
 62
     7
 10
-75.0
 20
75.0
 30
0.0
 40
17.5
  0
LINE
  5
1C6
  8
DATA
  6
CONTINUOUS
 62
     7
 10
-98.000000000001691
 20
-49.999999999999929
 30
0.0
 11
-52.000000000001698
 21
-49.999999999999929
 31
0.0
  0
LINE
  5
1C7
  8
DATA
  6
CONTINUOUS
 62
     7
 10
-53.020000000001687
 20
-48.999999999999922
 30
0.0
 11
-97.020000000001673
 21
-48.999999999999922
 31
0.0
  0
LINE
  5
1C8
  8
DATA
  6
CONTINUOUS
 62
     7
 10
-98.000000000001691
 20
-49.999999999999929
 30
0.0
 11
-97.0
 21
-48.999999999999922
 31
0.0
  0
LINE
  5
1C9
  8
DATA
  6
CONTINUOUS
 62
     7
 10
-52.000000000001698
 20
-49.999999999999929
 30
0.0
 11
-53.0
 21
-48.999999999999922
 31
0.0
  0
LINE
  5
1CA
  8
DATA
  6
CONTINUOUS
 62
     7
 10
-92.5
 20
7.9999999999999867
 30
0.0
 11
-57.5
 21
7.9999999999999867
 31
0.0
  0
LINE
  5
1CB
  8
DATA
  6
CONTINUOUS
 62
     7
 10
-94.500000000000014
 20
5.3413810651073561
 30
0.0
 11
-92.5
 21
7.9999999999999867
 31
0.0
  0
LINE
  5
1CC
  8
DATA
  6
CONTINUOUS
 62
     7
 10
-55.5
 20
5.3413810651073561
 30
0.0
 11
-57.5
 21
7.9999999999999867
 31
0.0
  0
LINE
  5
1CD
  8
DATA
  6
CONTINUOUS
 62
     7
 10
-99.0
 20
-30.999999999999929
 30
0.0
 11
-94.500000000000014
 21
5.3413810651073561
 31
0.0
  0
LINE
  5
1CE
  8
DATA
  6
CONTINUOUS
 62
     7
 10
-51.0
 20
-30.999999999999929
 30
0.0
 11
-55.5
 21
5.3413810651073561
 31
0.0
  0
LINE
  5
1CF
  8
DATA
  6
CONTINUOUS
 62
     7
 10
52.0
 20
-40.999999999999929
 30
0.0
 11
53.0
 21
-48.999999999999922
 31
0.0
  0
LINE
  5
1D0
  8
DATA
  6
CONTINUOUS
 62
     7
 10
98.0
 20
-40.999999999999929
 30
0.0
 11
97.0
 21
-48.999999999999922
 31
0.0
  0
LINE
  5
1D1
  8
DATA
  6
CONTINUOUS
 62
     7
 10
51.0
 20
-40.999999999999929
 30
0.0
 11
99.0
 21
-40.999999999999929
 31
0.0
  0
LINE
  5
1D2
  8
DATA
  6
CONTINUOUS
 62
     7
 10
57.5
 20
7.9999999999999867
 30
0.0
 11
92.5
 21
7.9999999999999867
 31
0.0
  0
LINE
  5
1D3
  8
DATA
  6
CONTINUOUS
 62
     7
 10
55.5
 20
5.3413810651073561
 30
0.0
 11
57.5
 21
7.9999999999999867
 31
0.0
  0
LINE
  5
1D4
  8
DATA
  6
CONTINUOUS
 62
     7
 10
94.500000000000014
 20
5.3413810651073561
 30
0.0
 11
92.5
 21
7.9999999999999867
 31
0.0
  0
LINE
  5
1D5
  8
DATA
  6
CONTINUOUS
 62
     7
 10
51.0
 20
-30.999999999999929
 30
0.0
 11
55.5
 21
5.3413810651073561
 31
0.0
  0
LINE
  5
1D6
  8
DATA
  6
CONTINUOUS
 62
     7
 10
99.0
 20
-30.999999999999929
 30
0.0
 11
94.500000000000014
 21
5.3413810651073561
 31
0.0
  0
LINE
  5
1D7
  8
DATA
  6
CONTINUOUS
 62
     7
 10
49.5
 20
-31.999999999999929
 30
0.0
 11
50.0
 21
-30.999999999999929
 31
0.0
  0
LINE
  5
1D8
  8
DATA
  6
CONTINUOUS
 62
     7
 10
50.0
 20
-30.999999999999929
 30
0.0
 11
100.0
 21
-30.999999999999929
 31
0.0
  0
LINE
  5
1D9
  8
DATA
  6
CONTINUOUS
 62
     7
 10
100.5
 20
-31.999999999999929
 30
0.0
 11
100.0
 21
-30.999999999999929
 31
0.0
  0
LINE
  5
1DA
  8
DATA
  6
CONTINUOUS
 62
     7
 10
-100.5
 20
-31.999999999999929
 30
0.0
 11
-100.0
 21
-30.999999999999929
 31
0.0
  0
LINE
  5
1DB
  8
DATA
  6
CONTINUOUS
 62
     7
 10
-100.0
 20
-30.999999999999929
 30
0.0
 11
-50.0
 21
-30.999999999999929
 31
0.0
  0
LINE
  5
1DC
  8
DATA
  6
CONTINUOUS
 62
     7
 10
-99.0
 20
-40.999999999999929
 30
0.0
 11
-51.0
 21
-40.999999999999929
 31
0.0
  0
LINE
  5
1DD
  8
DATA
  6
CONTINUOUS
 62
     7
 10
-49.5
 20
-31.999999999999929
 30
0.0
 11
-50.0
 21
-30.999999999999929
 31
0.0
  0
LINE
  5
1DE
  8
DATA
  6
CONTINUOUS
 62
     7
 10
-99.0
 20
-40.999999999999929
 30
0.0
 11
-100.5
 21
-31.999999999999929
 31
0.0
  0
LINE
  5
1DF
  8
DATA
  6
CONTINUOUS
 62
     7
 10
-51.0
 20
-40.999999999999929
 30
0.0
 11
-49.5
 21
-31.999999999999929
 31
0.0
  0
LINE
  5
1E0
  8
DATA
  6
CONTINUOUS
 62
     7
 10
-98.0
 20
-40.999999999999929
 30
0.0
 11
-97.0
 21
-48.999999999999922
 31
0.0
  0
LINE
  5
1E1
  8
DATA
  6
CONTINUOUS
 62
     7
 10
-52.0
 20
-40.999999999999929
 30
0.0
 11
-53.0
 21
-48.999999999999922
 31
0.0
  0
LINE
  5
1E2
  8
DATA
  6
CONTINUOUS
 62
     7
 10
51.999999999998288
 20
-49.999999999999929
 30
0.0
 11
97.99999999999828
 21
-49.999999999999929
 31
0.0
  0
LINE
  5
1E3
  8
DATA
  6
CONTINUOUS
 62
     7
 10
96.979999999998327
 20
-48.999999999999922
 30
0.0
 11
52.979999999998313
 21
-48.999999999999922
 31
0.0
  0
LINE
  5
1E4
  8
DATA
  6
CONTINUOUS
 62
     7
 10
51.999999999998288
 20
-49.999999999999929
 30
0.0
 11
53.0
 21
-48.999999999999922
 31
0.0
  0
LINE
  5
1E5
  8
DATA
  6
CONTINUOUS
 62
     7
 10
97.99999999999828
 20
-49.999999999999929
 30
0.0
 11
97.0
 21
-48.999999999999922
 31
0.0
  0
CIRCLE
  5
1E6
  8
DATA
  6
CONTINUOUS
 62
     7
 10
-75.0
 20
75.0
 30
0.0
 40
24.0
  0
TEXT
  5
1E7
  8
DATA
 62
     7
 10
-79.560755208335038
 20
-219.44326171874999
 30
0.0
 40
4.8865234374999993
  1
DHT
 41
0.7
 72
     1
 11
-75.000000000001705
 21
-217.0
 31
0.0
 73
     2
  0
TEXT
  5
1E8
  8
DATA
 62
     7
 10
78.257682291664963
 20
-220.5
 30
0.0
 40
6.5153645833333318
  1
TETRAD
 50
90.0
 41
0.7
 11
74.999999999998295
 21
-220.5
 31
0.0
 73
     2
  0
ARC
  5
1E9
  8
DATA
  6
CONTINUOUS
 62
     7
 10
74.999999999998295
 20
-201.75
 30
0.0
 40
7.883121914007897
 50
96.064901214823436
 51
129.11788337447189
  0
ARC
  5
1EA
  8
DATA
  6
CONTINUOUS
 62
     7
 10
74.999999999998295
 20
-201.75
 30
0.0
 40
9.0000000000000071
 50
96.064901214823408
 51
129.11788337447189
  0
TEXT
  5
1EB
  8
DATA
 62
     7
 10
144.1687319746944
 20
-337.66832100843521
 30
0.0
 40
4.8865234374999993
  1
ハンドヘルド型送信機
 41
0.7
 11
144.1687319746944
 21
-332.78179757093523
 31
0.0
 73
     3
  0
ENDSEC
  0
EOF
